Acordes de Guitarra » T »El Tren de los Sueños » Tu amor primero (Tab)

Tu amor primero
El Tren de los Sueños

  • Letra y Acordes
    SOLm   DOm   FA       SOLm
    1|------------------------------
    2|---3-4--4-3----3-4-3-----3----
    3|--5---------5--------5-3------
    4|------------------------------
    5|------------------------------
    6|------------------------------
           DOm    FA       SOLm
    1|------------------------------
    2|---3-4--4-3----------3--------
    3|--5---------5--3-2-3---3-0----
    4|------------------------------
    5|------------------------------
    6|------------------------------
    
    Estrofa 1:
    
    SOLm                DOm
    Me siento vacío, me siento dolido:
    FA                      DOm                   RE7
    
  • +
    ¡Colabora con nosotros!
    Envíanos tu versión de esta canción

Letra de Tu amor primero
Estrofa 1:
Me siento vacío, me siento dolido:
sé que no tengo razones, porque te tengo conmigo.
Pero llevo en mi alma una espina clavá:
es como una condena de la que quiero escapar.
Y de noche, al acostarme, pienso en tu cara de niña
y me duermo llorando hasta el amanecer de un nuevo día,
y me levanto pensando si en dejarlo o seguir contigo:
es un conjunto de sentimientos entre la alegría
y la pena de un amor.
Enlace:
Me duele tu pasado, niña, a fondo no lo conocía,
pero el día en que te vi, Dios me dijo que serías mía.
Estribillo:
Y me hubiera gustado ser tu amor primero
para haberte enseñado a amar,
y vivir toda mi vida contigo
sabiendo que tú eras para mí y para nadie más. (bis)
(Introducción)
Estrofa 2:
Sé que, si quiero seguir contigo,
tendré que empezarlo a superar,
y, aunque me jures que lo has echado al olvido,
en mi mente siempre lo voy a llevar.
(Enlace)
(Estribillo, dos veces)
Tu amor primero.

Video de Tu amor primero
[]



© LaCuerda.net · aviso legal · privacidad · contacto