Acordes de Guitarra » T »Tlen Huicani » La Bruja (Tab)

La Bruja
Tlen Huicani

Letras, Acordes y Tabs para Guitarra, Bajo y Ukulele

  • Intro: Am, A7, Dm, Am, E7, Am, A7, Dm, Am, E7, Am, E7
    
    
    (1)
    Am    G    F       E7
    Ay! que bonito es volar,
                    Am
    a las 2 de la mañana,
          G     F    E7
    a las 2 de la mañana,
                        Am
    Ay! que bonito es volar, ay mamá!.
    
               F      E7
    Volar y dejarse caer,
                         Am
    en los brazos de una dama
               F         E7
    ay! que bonito es volar,
                    Am
    
  • E-----------------7------8--------10---------10--------10---------
    B---10--10-----10-----10-------10----10---------10---------13-12--
    G----9---9---9------9-------10----------10---------10-------------
    D----------------------------------------------------------------
    A----------------------------------------------------------------
    E----------------------------------------------------------------
    
    E-------8-------8------8----------------7-----7-----7----7-----
    B----10---10------10-----------------9----9-----9-----10-------
    G--9---------9-------9----12--10---7--------7-----7------------
    D--------------------------------------------------------------
    A--------------------------------------------------------------
    E--------------------------------------------------------------
    
    E-------8-------8------8------8--
    B----10---10------10------12-----
    G--9---------9-------9-----------
    D--------------------------------
    A--------------------------------
    E--------------------------------
    
  • e|-----------------1-1-0-0------0-------------0-0--------
    B|--0-1-3--3-3-3-3---------1-1----1-1-1-1-1-1-----3-3-1-1
    G|2------------------------------------------------------
    D|-------------------------------------------------------
    A|-------------------------------------------------------
    E|-------------------------------------------------------
    
    
    e|-------------------------------
    B|0-0--0-0-0-0-3-3-1-1-0-0-------
    G|-------------------------2-2--2
    D|-------------------------------
    A|-------------------------------
    E|-------------------------------
    
    
    e|-----------------1-1-0-0------0-------------0-0--------
    B|--0-1-3--3-3-3-3---------1-1----1-1-1-1-1-1-----3-3-1-1
    G|2------------------------------------------------------
    D|-------------------------------------------------------
    
  • +
    ¡Colabora con nosotros!
    Envíanos tu versión de esta canción

Letra de La Bruja
(1)
Ay! que bonito es volar,
a las 2 de la mañana,
a las 2 de la mañana,
Ay! que bonito es volar, ay mamá!.
Volar y dejarse caer,
en los brazos de una dama
ay! que bonito es volar,
a las 2 de la mañana, ay mamá!
(2)
Me agarra la bruja
me lleva a su casa,
me vuelve maceta
y una calabaza.
Me agarra la bruja
me lleva al cerrito,
me vuelve maceta
y una calabazito.
Ay! dígame, dígame,
dígame usted,
¿cuántas criaturitas
Se ha chupado usted?
Ninguna, ninguna,
ninguna no sé,
ando en pretenciones
de chuparme a usted.
Repite Intro
(1)
Ay! me espantó una mujer,
en el aire iba volando,
en el aire iba volando,
ay! me espantó una mujer Ay mamá!
Entonces le pregunté:
que ¿a quién andaba buscando?
me dijo ¿Quién es usted?
soy cantador de huapango ay mamá!
(2)
Escóndete Chepa,
escóndete Juana,
que ahí anda la bruja
debajo de la cama.
Escóndete Chepa
escóndete Joba,
que ahí anada la bruja
volando en su escoba.
Ay! dígame, dígame
dígame usted
¿Cuántas criaturitas
se ha chupado usted?
ninguna, ninguna
ninguna no sé,
ando en pretenciones
de chuparme a usted.
Canción típica del Estado de Veracruz, México




[La Bruja chords][La Bruja cifra]
© LaCuerda.net · aviso legal · privacidad · es · en · pt · contacto