Acordes de Guitarra » T »Los Tekis » Vienes y te vas (Tab)

Vienes y te vas
Los Tekis

  • Letra y Acordes
    C                          Am
    Hoy ya no quiero verme contigo,
    C                        Am
    no sabes cuánto sufro cariño
    F                           Em
    No sé si soy feliz lejos de tí iii
    F                        G
    o soy feliz estando contigo.
    
    C                           Am
    Un día me amas luego me olvidas,
    C                           Am
    un día me amas luego te olvidas,
    F                           Em
    no sé si soy feliz lejos de tí, iii
    F                       G
    o soy feliz estando contigo.
    
    F                   Em
    Vienes, vienes y te vas,
    
  • Tablatura
                               Am
    e|-----3---3---3---------|----|
    b|-3/5---5---5---5-3-5-3-|-1--|
    g|-----------------------|----|
       C                       Am
    e|-----3---3---3---------|----|
    b|-3/5---5---5---5-3-5-3-|-1--|
    g|-----------------------|----|
       F                    Em Em/B C  Dm
    e|------------------0-|-3--------------|
    b|---1---1---1----1---|-----0---1---3--|
    g|-2---2---2----2-----|----------------|
       F                      G
    e|----------------------|----|
    b|---1---1---1----1-3-1-|-0--|
    g|-2---2---2----2-------|----|
    
    
    C                          Am
    Hoy ya no quiero verme contigo,
    
  • +
    ¡Colabora con nosotros!
    Envíanos tu versión de esta canción

Letra de Vienes y te vas
Hoy ya no quiero verme contigo,
no sabes cuánto sufro cariño
No sé si soy feliz lejos de tí iii
o soy feliz estando contigo.
Un día me amas luego me olvidas,
un día me amas luego te olvidas,
no sé si soy feliz lejos de tí, iii
o soy feliz estando contigo.
Vienes, vienes y te vas,
vienes, vienes y te vas,
vienes, vienes y te vas,
vienes, vienes y te vas.



© LaCuerda.net · aviso legal · privacidad · contacto