Acordes de Guitarra » T »Teen Tops » el Rock de la Carcel (Tab)

el Rock de la Carcel
Teen Tops

Letras, Acordes y Tabs para Guitarra, Bajo y Ukulele

  • D*     D
           Un dia hubo una fiesta
           aqui en la prision,
    D*     D
           la orquesta de los presos
           empezo a tocar,
    D*     D
           tocaron rock and roll 
           y todo se animo
    D*     D
           y un cuate se paro 
                                 G
           y empezo a cantar el rock
                              D
           todo el mundo a bailar
                    A
           todo el mundo en la prision
                D
           corrieron a bailar el rock
    
    
  •   D-A1  D   G   A
    E---1---2---3---0-------
    B---2---3---3---2-------
    G---1---2---0---2-------
    D-------0---0---2-------
    A-----------2---0-------
    E-----------3-----------
    
    D-A1     D
    Un dia hubo una fiesta
    aqui en la prision,
    D-A1     D
    la orquesta de los presos
    empezo a tocar,
    D-A1     D
    tocaron rock and roll
    y todo se animo
    D-A1     D
    y un cuate se paro
                         G
    
  •    A?  B?
    1|-x-|-x-|
    2|-3-|-4-|
    3|-2-|-3-|
    4|-4-|-5-|
    5|-5-|-6-|
    6|-x-|-x-|
    
    RIFF 2
    
    1|-----------------------------------------------------------------------|
    2|-----------------------------------------------------------------------|
    3|-----------------------------------------------------------------------|
    4|----------2-2-4-2-----------2-2-4-2------------------------------------|
    5|--0-0-4-4-----------0-0-4-4------------------2-2-4-2----------2-2-4-2--|
    6|-------------------------------------0-0-4-4----------0-0-4-4----------|
    
    1|--------------------------------------------------------------------|
    2|--------------------------------------------------------------------|
    3|--------------------------------------------------------------------|
    
  • B ¦-2--3-¦
    G ¦-1--2-¦
    D ¦----0-¦
    
    *
     Un día hubo una fiesta aquí en la prisión
    *
     la orquesta de los presos empezó a tocar
    *
     tocaron rockanrol y todo se animó
    *                                         G
     y un cuate se paró y empezó a cantar el rock
                        D
    todo el mundo a bailar
             A              G
    todo el mundo en la prisión
         D
    corrieron a bailar el rock
    
    *
    
  • Hola .  Estas es mi primera intervención y lo hago con el bajo.
    Pues se escucha bien junto con la canción, ustedes me dirán qué
    opinan. Saludos
    
     --------------------Gat0 jazZ-----------------------------
    
    
    Los espacios en blanco significanque ahí es donde toca
    las 2 veces la batería. es una medida para que no se pierdan.
    Estas algunas notaciones dentro de la tablatura:
    
    
    
    * Toda esta parte son los versos.
    ** Aquí es donde entra el coro.
    *** Empieza el solo.
    
    *
    
    G||-------|---------------------|-------|---------------------|
    D||-------|---------------------|-------|---------------------|
    A||-------|---------------------|-------|---------------------|
    E||-------|--9----10------------|-------|--9----10------------|
    
    
    
    -------|---------------------|-------|---------------------|-------|
    -------|---------------------|-------|---------------------|-------|
    -------|---------------------|-------|---------------------|-------|
    -------|--9----10------------|-------|--9----10------------|
  • +
    ¡Colabora con nosotros!
    Envíanos tu versión de esta canción

Letra de el Rock de la Carcel
Un dia hubo una fiesta
aqui en la prision,
la orquesta de los presos
empezo a tocar,
tocaron rock and roll
y todo se animo
y un cuate se paro
y empezo a cantar el rock
todo el mundo a bailar
todo el mundo en la prision
corrieron a bailar el rock
El 47
dijo al 23
oyeme mi cuate
vamos a bailar
parate volando
a rock and rollear
el rock de la carcel
va a comenzar el rock
todo el mundo a bailar
todo el mundo en la prision
corrieron a bailar el rock
corrieron a bailar el rock
corrieron a bailar el rock
Acordes:
Este es un buen cover de Elvis.




[el Rock de la Carcel chords][el Rock de la Carcel cifra]
© LaCuerda.net · aviso legal · privacidad · es · en · pt · contacto