Acordes de Guitarra » S »Supersubmarina » LN Granada (Tab)

LN Granada
Supersubmarina

Letras, Notas, Punteos, Tablaturas y Acordes de Guitarra (Tabs & Chords)

  • Tablatura
    |------------------------------------------------------------------|
    |------------------------------------------------------------------|
    |------------------------------------------------------------------|
    |------7----7----7----7---------6----6----6----6-------------------|
    |----9----9----9----9---------7----7----7----7---------------------|
    |------------------------------------------------------------------|
    
    |------------------------------------------------------------------|
    |------------------------------------------------------------------|
    |------------------------------------------------------------------|
    |-----11----11----11----11-------12---11---------------------------|
    |---12----12----12----12------12-----------------------------------|
    |------------------------------------------------------------------|
    
    |------------------------------------------------------------------|
    |------------------------------------------------------------------|
    |------------------------------------------------------------------|
    |------7----7----7----7---------6----6----6----6----6--------------|
    |----9----9----9----9---------7----7----7----7----7----------------|
    |------------------------------------------------------------------|
    
  • +
    ¡Colabora con nosotros!
    Envíanos tu versión de esta canción

Letra de LN Granada
Sigue con estos acordes:
Sería capaz de cambiar el calendario lunar;
para verte aquí en granada un día más.
Podría llegar a escalar esta montaña polar y a tu lado aterrizar.
Del Veleta al Sacromonte sin mirar
podría viajar a Graná con mi nave espacial
y el paseo de los tristes alegrar
si te pones a bailar
las estrellas nos alambran al pasar
Siendo tan pequeño el universo
cómo pudiste caber allí
(Repite lo mismo de antes)
Siendo tan eterno este momento
cómo me voy a querer morir
para quedarme sin ti
y bailar con la muerte no es buen plan
yo prefiero que me mates tu a bailar



© LaCuerda.net · Aviso Legal · Privacidad