Acordes de Guitarra » S »Sumo » Crua Chan (Tab)

Crua Chan
Sumo

Letras, Acordes y Tabs para Guitarra, Bajo y Ukulele

  • e|---12t9p5h7p5---------
    B|-----------------------
    
    
     A                                  Asus4 A
     It was seven hundred and forty-five,
     the highland spirit had revived,
     Mac Dougall and Mac Donald there,
     the clans had come from everywhere,
     singing
    
    
    Estribillo:
    
    G|--6---4---2---4---2--
    D|--7---6---4---6---2--
    A|------------------0--
        Fi  FA  Fu   FA
    
                  A Asus4 A                        A Asus4 A
    
  • e|----------------------------|-12-------------------------|
    B|-12h14p12-------12----------|----14p12-------12----------|
    G|----------14----------14----|----------14----------14----|
    D|----------------------------|----------------------------|
    A|----------------------------|----------------------------|
    E|----------------------------|----------------------------|
    
    
    - Guitarra 2, intro y estrofas
       *       *       *       *         *       *       *       *
    e|---------------------------------|---------------------------------|
    B|---------------------------------|---------------------------------|
    G|---------------------------------|---------------------------------|
    D|---------7-----------------------|-4-------------------------------|
    A|---------------5-5-h-7---7-------|---------7-------4-/-5-------7---|
    E|-5-------------------------------|--------------(5)----------------|
    
    
    - Guitarra 2, estribillos (x2)
       *   *   *   *     *   *   *   *     *   *   *   *     *   *   *   *
    
  • INTRO 1
    |-------------------|------------------|-------------------|------------------|
    |-------------------|------------------|-------------------|------------------|
    |-------------------|------------------|-------------------|-----------7-/-12-|
    |-------------------|------------------|-------------------|------------------|
    
    |-------------------|------------------|-------------------|------------------|
    |-------------------|---11--11--11--11-|-------------------|---14--14--14--14-|
    |-0-0-12---0-0-12---|-0---0---0---0----|-0-0-12---0-0-12---|-0---0---0---0----|
    |-------------------|------------------|-------------------|------------------|
    
    
    ESTROFA 1
    |-------------------|------------------|-------------------|------------------|
    |-------------------|---11--11--11--11-|-------------------|---14--14--14--14-|
    |-0-0-12---0-0-12---|-0---0---0---0----|-0-0-12---0-0-12---|-0---0---0---0----|
    |-------------------|------------------|-------------------|------------------|
    
                      
  • +
    ¡Colabora con nosotros!
    Envíanos tu versión de esta canción

Letra de Crua Chan
- Guitarra 2, intro y estrofas
* * * * * * * *
- Guitarra 2, estribillos (x2)
* * * * * * * * * * * * * * * *
Estrofa 1:
It was seven hundred and forty-five,
the highland spirit had revived,
Mac Dougall and Mac Donald there,
the clans had come from everywhere, singing:
Estribillo:
Fee fi fo fum, I smell the blood of a Englishman,
fee fi fo fum, come on London, here we come.
Estrofa 2:
We went all the way down south,
we were frothening at the mouth,
coming down to Derby town,
we'd beaten everyone around, singing:
Estribillo:
Fee fi fo fum, I smell the blood of a Englishman,
fee fi fo fum, come on England, here we come.
Estrofa 3:
We ended at Culloden moor,
feeling bad and feeling poor,
the redcoats had chased us there,
there we died and there we stayed, singing:
Estribillo:
Fee fi fo fum, I smell the blood of a Scotsman,
fee fi fo fum, United Kingdom here we come.
Estrofa 4:
We the bonnie prince has gone back home,
he's never gonna come back.
We'll do to you at Wembley,
we'll do it to you in pubs,
with the Scottish louts larking about.
Here come your rats, cruachan lad.




[Crua Chan chords][Crua Chan cifra]
© LaCuerda.net · aviso legal · privacidad · es · en · pt · contacto