Acordes de Guitarra » S »Sum » Lejos (Tab)

Lejos
Sum

  • Letra y Acordes
    E-------------0--0---
    B--5-5-3-3---0--0----
    G---4-4-2-2-1--1-----    se toca 2 veces
    D--------------------
    A--------------------
    E--------------------
    
              D                   E/G#
    Corre el viento, se apaga el Sol
              D         E/G#
    se hace frio el corazón
              D                 E/G#
    no hay recuerdos, solo hay dolor
         D      A      D          E
    es noche, llueve, ya no hay razón.
    
              Bm                 D
    Lejos del Sol, lejos del tiempo
              A      E/G#
    lejos de la ilusión
    
  • Tablatura
        D          E         Bm         C#m        A        Dm
    e|--2---|  e|-----|   e|--2--|   e|--4--|  e|-----| e|--1--|
    b|--3---|  b|-----|   b|--3--|   b|--5--|  b|--2--| b|--3--|
    g|--2---|  g|--1--|   g|--4--|   g|--6--|  g|--2--| g|--2--|
    D|------|  D|--2--|   D|--4--|   D|--6--|  D|--2--| D|-----|
    A|------|  A|--2--|   A|--2--|   A|--4--|  A|-----| A|-----|
    E|------|  E|-----|   E|--0--|   E|--0--|  E|-----| E|-----|
    
    
    Intro:
    e|-------------------------------------------------------|
    B|-------------------------------5------------5----------|
    G|--9---9----7-----7----------4------4-----4------4------| X2
    D|----9---9----7-----7------6------------6---------------|
    A|-------------------------------------------------------|
    E|-------------------------------------------------------|
    
    
              D                   E
    Corre el viento, se apaga el sol
    
  • +
    ¡Colabora con nosotros!
    Envíanos tu versión de esta canción

Letra de Lejos
Corre el viento, se apaga el Sol
se hace frio el corazón
no hay recuerdos, solo hay dolor
es noche, llueve, ya no hay razón.
Lejos del Sol, lejos del tiempo
lejos de la ilusión
quiero escuchar tu voz, quiero abrazar tu amor
y no regresar
que ya no exista el ayer
y pueda al fin renacer
INTER 1.-
Lejos del amor
se acaba el tiempo muere la piel
doy pasos lentos
y veo un nuevo amanecer
sin estar y sin ser.
Lejos del Sol, lejos del timepo
lejos de la ilusión
quiero escuchar tu voz, quiero abrazar tu amor
y no regresar
Que ya no exista el ayer
y pueda al fin renacer.
INTER 2.-
Lejos del Sol, lejos del timepo
lejos de la ilusión
quiero escuchar tu voz, quiero abrazar tu amor
y no regresar
Que ya no exista el ayer
y pueda al fin renacer.
El final de la canción es muy parecido al Inter 1.-
por eso no lo he escrito ok.
Espero ke les sirva y los acordes ke les deje
son con las posiciones kon las ke suena el CD. segun mi persona
jajajajaja

Video de Lejos
[]



© LaCuerda.net · aviso legal · privacidad · contacto