Tablatura para Guitarra de Su Presencia: Hosanna en las alturas
Conexión · Inscripción
Letras y Acordes
Pantalla Completa
Imprimir
Versión Texto
Añadir Favorito
Otras Versiones

Mostrar Diagramas
Desfile Automático
Manipular Acordes
Formato del Texto


Hosanna en las alturas(TAB)

Su Presencia

calidad:
sprs0212
AUTOR: Su Presencia  corregir
ALBUM: El (2012)
Enviado por Fanor, basado en Javier
E)-------------------------------------
B)--9-8----9-8----9-8----9-8----9-8----
G)------8------8------8------8------8--
D)-------------------------------------
A)-------------------------------------
E)-------------------------------------

            Intro

E)-------------------------------------
B)-------9-8-6------------4------------
G)-5-6-----------5-6-6-5-----5--3------
D)-------------------------------------
A)-------------------------------------
E)-------------------------------------

E)-------------------------------------
B)-------9-8-6--------------9-8--11----
G)-56-----------5-6-6-5---------------
D)-------------------------------------
A)-------------------------------------
E)-------------------------------------



C# G# Eb Fm Rey de Majestad, ven y llena este lugar
C# Eb Con tu luz, con tu luz.
C# G# Eb Fm Glorioso salvador, te doy todo mi amor
C# Eb Me rindo a ti, solo a ti
Fm Gm G# Eb Dm7 Cristo es Rey, por toda la eternidad... CORO:
C# G# Eb Fm //Hosanna, Toda la creación te adorara
C# G# Eb Fm Hosanna, al Rey de la cruz que en su trono está// E)------------------------------------- B)-------9-8-6------------4------------ G)-5-6-----------5-6-6-5-----5--3------ D)------------------------------------- A)------------------------------------- E)------------------------------------- ---] Rey de M... SOLO E)--------------------------------------------- B)---------14-11-8-9-11-9---8-9-11-9----------- G)------14---------------8----------8-------14 D)-11-12-------------------------------11-12--- A)--------------------------------------------- E)--------------------------------------------- E)------------------------------------------------ B)--8-9------------------14-------12------14------ G)------8-11-12----11-12---------------------11--- D)--------------12---------11-120---11-12-------12 A)------------------------------------------------ E)------------------------------------------------
C# G# Eb Fm G# Hosanna en las Alturas, y en la tierra paz
C# G# Eb Fm Hosanna en las Alturas, y en la tierra paz
C# G# Eb Fm G# Hosanna en las Alturas, y en la tierra paz
C# G# Eb Fm Hosanna en las Alturas, y en la tierra paz Hola Si necesitan más ayuda o alguna información o alguna otra canción mi Twitter es @JavierGomezRock o si necesitan el tutorial de esta canción me pueden encontrar en Skype Como javiergomezsurock14 La Canción Al Gran Yo Soy También la tengo si la desean. Bueno, Saludos DLB
Este fichero es trabajo propio de su transcriptor y representa su interpretación personal de la canción. El material contenido en esta página es
para exclusivo uso privado, por lo que se prohibe su reproducción o retransmisión, así como su uso para fines comerciales.

© LaCuerda.net · Aviso Legal · Privacidad