Acordes de Guitarra » S »Su Presencia » Espíritu Santo (Tab)

Espíritu Santo
Su Presencia

Letras, Acordes y Tabs para Guitarra, Bajo y Ukulele

  •    B
    Te anhelo
    
       F#
    te deseo
    
       G#m
    ven camina junto a mí.
    
          E      F#
    Tú me puedes entender
    
            B
    Consolador.
    
           F#
    Sumérgeme
    
           G#m
    inúndame de ti.
    
  •       B             F#/A#
    Te anhelo      te deseo
         G#m
    Ven camina junto a mí.
           E           F#
    Tú me puedes entender
            B            F/A#
    Consolador,    Sumérgeme
         G#m
    Inúndame de ti.
    E                      F#
    Quiero llevar tu color en mí.
           B         F#
    Espíritu   inúndame de ti.
              G#m
    Quiero estar en ti.
             E              F#
    Que me guíes en mí caminar.
    
       B
    
  • |-----------7/------9---7/----9---7---|
    |6/7---7/------9---7/----9---7---|
    |7/8-----------------------------|
    |8/9-----------------------------|
    |-------------------------------------|
    |-------------------------------------|
    
     |       |       |       |        |       |       |       |
    |------6-------9/--6-------------|------4-------------------------|
    |------7-------9/--7-------------|------4-----------7-------------|
    |------------------------6/8/6---|------4-------6/8---8/6/--4-----|
    |9/8---------------------------8-|6-------------------6-4-|
    |--------------------------------|--------------------------------|
    |--------------------------------|--------------------------------|
    
     |       |       |       |        |       |       |       |
    |--------------------------------|------7-------9---7-----9---7---|
    |------5---------------7---------|------7-------9---7-----9---7---|
    |------------4---------------6---|--------------------------------|
    |6---------------8---------------|8/9---------------------|
    
  •   B
    E|-----------7--7--9--7-----------------|
    B|-------7---7--7--9--7--7-7h9p7---------|
    G|-------8------------------------4------|
    D|--8s9--9-------------------------------|
    A|---------------------------------------|
    E|---------------------------------------|
    
      F#
    E|----------6--6--9--6-------------------|
    B|-------7--7--7--9--7-------------------|
    G|-------6--------------6-6h8p6----------|
    D|--9s8--8----------------------8--------|
    A|---------------------------------------|
    E|---------------------------------------|
    
      G#m
    E|---------------------------------------|
    B|-------5----------7--------------------|
    G|-------4--6-6-6s8---8-6-4--------------|
    
  • +
    ¡Colabora con nosotros!
    Envíanos tu versión de esta canción

Letra de Espíritu Santo
Te anhelo
te deseo
ven camina junto a mí.
Tú me puedes entender
Consolador.
Sumérgeme
inúndame de ti.
Quiero llevar tu color en mí.
Espíritu
inúndame de ti.
Quiero estar en ti.
Que me guíes en mi caminar.
Gracias por estar aquí,
por estar en mí,
sosteniéndome, ayudándome,
Consolador,
Ayudador,
una vez más.
una vez más tú en mí,
ayudándome.
Es mi primera transcripcion, espero que les
haya gustado como quedo. Cualquier correccion,
por favor escriban a ajrumbo29@hotmail.com




[Espíritu Santo chords][Espíritu Santo cifra]
© LaCuerda.net · aviso legal · privacidad · es · en · pt · contacto