Acordes de Guitarra » S »Su Presencia » Hosanna en las alturas (Tab)

Hosanna en las alturas
Su Presencia

Letras, Acordes y Tabs para Guitarra, Bajo y Ukulele

  • E)-----------------------------------
    B)--9-8----9-8----9-8----9-8----9-8--
    G)------8------8------8------8------8
    D)-----------------------------------
    A)-----------------------------------
    E)-----------------------------------
    
                Intro
    
    E)-------------------------------------
    B)------6\9-8-6--------------\9-8------
    G)-4\6------------5-6-6-5-5------------
    D)--------------------------------8----
    A)-------------------------------------
    E)-------------------------------------
    
    E)-------------------------------------
    B)------6\9-8-6--------------\9-8--9\11
    G)-4\6------------5-6-6-5-5------------
    D)-------------------------------------
    
  • E)-------------------------------------
    B)--9-8----9-8----9-8----9-8----9-8----
    G)------8------8------8------8------8--
    D)-------------------------------------
    A)-------------------------------------
    E)-------------------------------------
    
                Intro
    
    E)-------------------------------------
    B)-------9-8-6------------4------------
    G)-5-6-----------5-6-6-5-----5--3------
    D)-------------------------------------
    A)-------------------------------------
    E)-------------------------------------
    
    E)-------------------------------------
    B)-------9-8-6--------------9-8--11----
    G)-56-----------5-6-6-5---------------
    D)-------------------------------------
    
  • +
    ¡Colabora con nosotros!
    Envíanos tu versión de esta canción

Letra de Hosanna en las alturas
Rey de Majestad, ven y llena este lugar
Con tu luz, con tu luz.
Glorioso salvador, te doy todo mi amor
Me rindo a ti, solo a ti
Cristo es Rey, por toda la eternidad...
Hosanna, Toda la creación te adorara
Hosanna, al Rey de la cruz que en su trono está
Hosanna, Toda la creación te adorara
Hosanna, al Rey de la cruz que en su trono está
Hosanna en las Alturas, y en la tierra paz
Hosanna en las Alturas, y en la tierra paz
Hosanna en las Alturas, y en la tierra paz
Hola Si necesitan más ayuda o alguna información o alguna otra canción
mi Twitter es @JavierGomezRock o si necesitan el tutorial de esta canción
me pueden encontrar en Skype Como javiergomezsurock14
La Canción Al Gran Yo Soy También la tengo si la desean.
Bueno, Saludos DLB




[Hosanna en las alturas chords][Hosanna en las alturas cifra]
© LaCuerda.net · aviso legal · privacidad · es · en · pt · contacto