Acordes de Guitarra » S »Strike 3 » Intencity (Tab)

Intencity
Strike 3

Letras, Acordes y Tabs para Guitarra, Bajo y Ukulele

  • E--------------1-------------1-------------1-------------1
    A—4-4-4---4---4-4-4--4—--4-4-4--4---4—4-4- 4--(x 2)
    D-------------------------------------------------------------
    G-------------------------------------------------------------
    
    estrofa
    E--------------------------------------------------------
    A-4-4-4--4-4-4--4-4-4--4-4-4-----------------(x4)
    D--------------------------------------------------------
    G--------------------------------------------------------
    
    precoro
    
    coro
    E-7-7-7-7----------1-1-1-1--7-7-7-7------------------1-1-1-1--5-5-5-5--
    A----------3-3-3-3------------------3-3-3-3--6-6-6-6-------------------
    D----------------------------------------------------------------------
    G----------------------------------------------------------------------
       De tan solo.....                 Vas tan solo…
    E-7-7-7-7----------1-1-1-1--7-7-7-7------------------1-1-1-1--5-5-5-5--
    
  • +
    ¡Colabora con nosotros!
    Envíanos tu versión de esta canción






[Intencity chords][Intencity cifra]
© LaCuerda.net · aviso legal · privacidad · es · en · pt · contacto
DINAMICO