Acordes de Guitarra » S »Spook and the Guay » Killer Girl (Tab)

Killer Girl
Spook and the Guay

Letras, Acordes y Tabs para Guitarra, Bajo y Ukulele

  •   |  C  | Em8 |  F  |  G  |  Am |  Dm |  B  |  E  |  Em
      |--8--|--7--|--1--|--3--|--5--|--5--|--7--|--0--|--0--|
      |--8--|--8--|--1--|--3--|--5--|--6--|--7--|--0--|--0--|
      |--9--|--9--|--2--|--4--|--5--|--7--|--8--|--1--|--0--|
      |--10-|--9--|--3--|--5--|--7--|--7--|--9--|--2--|--2--|
      |--10-|--7--|--3--|--5--|--7--|--5--|--9--|--2--|--2--|
      |--8--|--x--|--1--|--3--|--5--|--x--|--7--|--0--|--0--|
    
      | D5  | A5  | B5  |  E5 |  G5 |  F5 |  C5 |
      |-----|-----|-----|-----|-----|-----|-----|
      |-----|-----|-----|-----|-----|-----|-----|
      |--7--|-----|-----|--9--|--12-|--10-|--5--|
      |--7--|--7--|--9--|--9--|--12-|--10-|--5--|
      |--5--|--7--|--9--|--7--|--10-|--8--|--3--|
      |-----|--5--|--7--|-----|-----|-----|-----|
    
    Introducción
    C   Em8   C   Em8   F   G    F    G
    
    C  Em8            C       Em8
    
  •  Aqui les va el bajo también
    
    
     INTRODUCCIÓN
     |---------------4-------------------4--------
     |-----2-2-5-2--2-5-2-5----2-2-5-2--2-5-2-5-3-
     |-3--3-3--------------3--3-3-----------------
     |--------------------------------------------
    
     --2-5-2------7-4-4----2-5-2------------------
     -3-----3-5--5---5-3--3-----3-5-5-3-3-2-2-0-0-
     ---------------------------------------------
     ---------------------------------------------
    
     ---------------4-------------------4---------
     -----2-2-5-2--2-5-2-5----2-2-5-2--2-5-2-5-3--
     -3--3-3--------------3--3-3------------------
     ---------------------------------------------
    
     --2-5-2------7--4----2-5-2------------------|
     -3-----3-5--5----3--3-----3-5-5-3-3-2-2-0-0-|
     --------------------------------------------|
     --------------------------------------------|
    
    
    
     VERSO 1
     |-------------2-0-2---2-2-0-0-2-------------
     |--2-5-2-2-5-2------------------2--3-3----3-
     |-3-----3-----------------------------3-3---
     |----------------
  • +
    ¡Colabora con nosotros!
    Envíanos tu versión de esta canción

Letra de Killer Girl
|--8--|--7--|--1--|--3--|--5--|--5--|--7--|--0--|--0--|
|--8--|--8--|--1--|--3--|--5--|--6--|--7--|--0--|--0--|
|--9--|--9--|--2--|--4--|--5--|--7--|--8--|--1--|--0--|
|--10-|--9--|--3--|--5--|--7--|--7--|--9--|--2--|--2--|
|--10-|--7--|--3--|--5--|--7--|--5--|--9--|--2--|--2--|
|--8--|--x--|--1--|--3--|--5--|--x--|--7--|--0--|--0--|
|--7--|--7--|--9--|--9--|--12-|--10-|--5--|
|--5--|--7--|--9--|--7--|--10-|--8--|--3--|
Introducción
Just a killer girl
You're setting my soul on fire
Then you commit the murder
Verso 1
Tu risa dejó corazón como después de una lucha
Herido por las piedras que le cayeron encima
Unos dicen mejor, mejor asi
Armé combates en valde y sin illusión
Y a perder la lucha pardí la razón
Y me quede sin gusto, sin pasión
Tonight, tonight, tonight, I'm really down
It should be easy, easy, easy to stop the time
But wicked and rude, things that you've done to me
When you left me, you killed me
Just a killer girl
You're setting my soul on fire
Then you commit the murder
Verso 2
Yo intente atraparte agarrando un tacón
Intente proponerte mejor solución
Que la de olvidarme como un cajón
Claro no es tan lejos el cine es muy cerca
Me has plantado solo pa' una película
Una historia tonta para chica
Tonight, tonight, tonight, I'm really down
It should be easy, easy, easy to stop the time
But wicked and rude, things that you've done to me
When you left me, you killed me
Intermedio
Tonight, tonight, tonight, I'm really down
It should be easy, easy, easy to stop the time
But wicked and rude, things that you've done to me
When you left me, you killed me
Just a killer girl
You're setting my soul on fire
Then you commit the murder
Just a killer girl
Eso fue todo desde un hermano colombiano...
que viva el SKA

Video de Killer Girl
[]




[Killer Girl chords][Killer Girl cifra]
© LaCuerda.net · aviso legal · privacidad · es · en · pt · contacto