Acordes de Guitarra » S »Spinetta Jade » Digital Ayatollah (Tab)

Digital Ayatollah
Spinetta Jade

Letras, Acordes y Tabs para Guitarra, Bajo y Ukulele

  • Am7/9: x05500
    Dm7/9: x5355x
    E7/#9: x7678x
    Gmaj7: xx5432
    
    Intro (Fig. A):
    e|---------------------------2p0---2p0---|
    b|----0-------3------2-----0----0-----0--|
    g|--0---3--2---0---0-----0-------0-----0-|
    d|4--------------0-----3-----------------|
    a|---------------------------------------|
    E|---------------------------------------|
    
    e|---------------------------2p0---5--7--|
    b|----0-------3------2-----0----0---5---7|
    g|--0---3--2---0---0-----0-------0-------|
    d|4--------------0-----3-----------------|
    a|---------------------------------------|
    E|---------------------------------------|
    
    
  • +
    ¡Colabora con nosotros!
    Envíanos tu versión de esta canción

Letra de Digital Ayatollah
00:07 a 00:35: Fig. B
00:35 a 00:42: Fig. C
00:42 a 00:56: Fig. D
00:56 a 01:03: Fig. C
01:03 a 01:10: Fig. B
01:10 a 01:20: Fig. E
01:20 a 01:27: Fig. B
01:27 a 02:29: Corte A
Corte de teclados sobre:
E|-2-0--2-2-|
02:29 a 02:43: Fig. B
02:43 a 02:50: Fig. C
02:50 a 03:05: Fig. D
03:05 a 03:11: Fig. C (sin guitarra)
03:11 a 03:17: Fig. B
03:17 a 03:28: Fig. E
03:28 a 03:35: Fig. B
03:35 a 04:36: Corte A
Fin: Fig. A (riff)




[Digital Ayatollah chords][Digital Ayatollah cifra]
© LaCuerda.net · aviso legal · privacidad · es · en · pt · contacto
DINAMICO