Acordes de Guitarra » S »La Sonora Dinamita » Que Bello (Tab)

Que Bello
La Sonora Dinamita

Letras, Acordes y Tabs para Guitarra, Bajo y Ukulele

  • intro D x4,  D C#m G D Em  A,
          G,A,D x2
    
    
    
    D       C#m         G
    Por que me miras asi?
                    A       D
    Mientras me visto sin ti
    D         C#m           G
    Recuerda bien este cuerpo
    
    que fue tuyo a placer
          Em        A
    para no engañar
    
    D        C#m          G
    Ya no te mojes los labios
                    A       D
    y me insinues tus ganas
    
  • D F#m G D G Em A
    
    G A D G A D
    
    
    ESTROFA:
    
    D          F#m     G
    Porque me miras así
                 A         D
    mientras me visto sin ti.
               F#m         G
    recuerda bien este cuerpo
    
    que fue tuyo a placer
         Em             A
    para amar y engañar.
    
    
    D         F#m       G
    
  • La Sonora Margarita
    Que Bello
    
    Intro
    G.---------
    D.----4-7--
    A.--5------  x 3
    E.---------
    
    G.-----------------------------------------------------------------
    D.----4-7-------11-----9-12----4-7-----9-12-------9----------------
    A.--5------9-12-----10-------5------10-------7-10----0-4-7--0-4-7--
    E.-----------------------------------------------------------------
    
    G.--------------------------------
    D.-----9-12-----------4-7----4-7--
    A.--10-------0-4-7--5------5------  x  2
    E.--------------------------------
    
    Verso
    Porque me miras así...
    G.------------------------------------------------------------------
    D.----4-7-------11-----9-12-----9-12-----9-12----4-7----4-7----4-7--
    A.--5------9-12-----10-------10-------10-------0------5------5------
    E.------------------------------------------------------------------
    
    recuerda bien este cuerpo...
    G.-------------------------------------------------------------------
    D.----4-7-------11-----9-12-----9-12-----9-12-------9----------------
    A.--5------9-
  • Ahí les va la Intro, y también les pongo los acordes, espero que
    no se confundan
    
    
    Guitarra:
    D              F#m                G
    re4, re4, re4, do#4, la3, fa#3, si3,
               D               Em
    si3, si3, la3, fa#3, re3, sol3,
                                    A7
    sol3, sol3, sol3, fa#3, sol3, mi3
    
    Trompetas:(En estas figuras se tocan las dos notas al mismo tiempo,
    las que están en diferentes renglones. Por ejemplo, la figura
    comienza tocando re4 y la3 al mismo tiempo.)
    
    INTRO:
         G                   A7                 D
    re4, mi4, mi4, mi4, mi4, mi4,  mi4,  la4,  la4,  fa#4
    la3, si3, si3, si3, si3, do#3, do#3, fa#4, fa#4, re4
    
    
    PUENTE:
    D
    fa#4, fa#4, re4, re4, fa#4,   fa#4, la4,  fa#4
    re4,  re4,  la3, la3, re4,    re4,  fa#4, re4
    Bm
    re4, re4, si3,  si3,  re4,   re4, fa#4, re4
    si3, si3, fa#3, fa#3, si3,   si3, re4,  si3
    G
    si3,  si3,  sol3, sol3, si3,   si3,  re4, si3
    sol3, sol3, re3,  re3,  sol3,  sol3, si3, sol3
    A7
    do#4, do#4, la3, la3, do#4,   do#4, mi4
    la3,  la3,  mi3, mi3, la3,   
  • +
    ¡Colabora con nosotros!
    Envíanos tu versión de esta canción

Letra de Que Bello
Por que me miras asi?
Mientras me visto sin ti
Recuerda bien este cuerpo
que fue tuyo a placer
para no engañar
Ya no te mojes los labios
y me insinues tus ganas
eres tan bello y sensual
que no se si me ire
ahora o mejor despues
Y yo que te deseo a morir
que importa esta es la ultima vez
el orgullo puede esperar
pero me arrepiento, donde sea
y tomame!
Que bello cuando me amas asi
y muerdes cada parte de mi
Que bellos son tus celos de hombre
que sientes cada vez que me voy..
Mientras me visto otra vez
Tu me preparas un té
y espero siempre escuchar
esa mentira usual
que no me deja marchar
Oh fiado te acercas a mi
y bebo de tus manos el té
Ay eres tan bello y sensual
que no se si me ire
ahora o mejor despues..
Y yo que te deseo a morir
que importa esta es la ultima vez
el orgullo puede esperar
pero me arrepiento
en el piso donde sea
y tomame!
Que bello cuando me amas asi
y muerdes cada parte de mi
Que bellos son tus celos de hombre
que sientes cada vez que me voy..




[Que Bello chords][Que Bello cifra]
© LaCuerda.net · aviso legal · privacidad · es · en · pt · contacto