Acordes de Guitarra » S »Sombras » Vos y Yo (Tab)

Vos y Yo
Sombras

Letras, Acordes y Tabs para Guitarra, Bajo y Ukulele

  •       Gm7
    Vos y yo, frente al bar
    Riff 1                                 Gm7
    Rara vez compartimos juntos tanto tiempo
             Cm7
    Y es verdad, no soy yo
    D#7         D7           Gm7
    Cada vez estoy más cerca de acabar mintiendo
    Riff 1                            Gm7
    Cada vez compartimos vicios más oscuros
             Cm7
    Y es verdad, no soy yo
    
    D#7  D7
    
    Cm7                               Gm7
    Y si me encuentras hoy prendido fuego
    Cm7                          Gm7
    Es porque no lo puedo controlar
    Cm7                                Riff 2
    
  • E|-----------------------
    B|-----------------------
    G|-----------------------
    D|--5--3-----------------
    A|--------5-----------3--
    E|-----------3--3--6-----
    
    Riff 2
    
    Sobre los acordes: Gm7 D#7 D7
    
    E|----------------------------------------------
    B|----------------------------------------------
    G|----------------------------------------------
    D|--5--3--------3-----5--3--------3-------------
    A|--------3--5--------------3--5-----6--6/8--5--
    E|----------------------------------------------
    
          Gm7
    Vos y yo, frente al bar
    
  • +
    ¡Colabora con nosotros!
    Envíanos tu versión de esta canción

Letra de Vos y Yo
Vos y yo, frente al bar
Rara vez compartimos juntos tanto tiempo
Y es verdad, no soy yo
Cada vez estoy más cerca de acabar mintiendo
Cada vez compartimos vicios más oscuros
Y es verdad, no soy yo
Y si me encuentras hoy prendido fuego
Es porque no lo puedo controlar
Tengo el disfraz para salir al encuentro
Vos y yo, frente al bar
Rara vez compartimos juntos tanto tiempo
Riff 1
Riff 2
Sobre los acordes: Gm7 D#7 D7




[Vos y Yo chords][Vos y Yo cifra]
© LaCuerda.net · aviso legal · privacidad · es · en · pt · contacto
DINAMICO