Acordes de Guitarra » S »Sombras » Veneno para olvidar (Tab)

Veneno para olvidar
Sombras

  • Letra y Acordes
     Dm
    Para olvidar tu querer chiquita
     C
    para dejarte de amara negrita
    Bb            C           F
    voy a tomar veneno para olvidar
    
    Dm
    Y quiero que al morir mis ojos
    C
    no llores por este amor que nunca
    Bb              C          Dm
    supiste amar supiste corresponder
    
    Bb            C           Dm
    Voy a tomar veneno para olvidarte
     C
    no quiero seguir sufriendo
     Bb
    quiero olvidar este afecto
    
  • Letra y Acordes
    Am
    Para olvidar tu querer chiquita,
    G
    para dejarte de amar negrita,
    F            G             Am
    voy a tomar veneno para olvidar,
    
    Am
    Y quiero que al morir tu ojos.
    G
    no lloren por este amor que nunca,
    F              G           Am
    supiste amar, supiste corresponder...
    
    F            G              Am
    Voy a tomar veneno para olvidarte...
    F            G              Am
    Voy a tomar veneno para olvidar
    
    Am
    
  • Tablatura
    e----------------------------------------------------------
    b---------------------------------------------------------
    g-----5--3--3h5-------5--3--3h5------------3--2-------------
    d--5------------5---------------5------5--------------------
    a----------------------------------------------------------
    e----------------------------------------------------------
    
    e------------------------------------------------------
    b----6--4--4h6----------4-3---3h4h3-----------------------
    g--5------------5----5---------------5--3--3h5--------------
    d-----------------------------------------------------------
    a---------------------------------------------------------
    e-----------------------------------------------------------
    
    e-------------------------------------------------------------
    b-------13--11--11h3------13--11--11h13-----------11--10--------
    g---12---------------12------------------12---12----------------
    d--------------------------------------------------------------
    a--------------------------------------------------------------
    e-----------------------------------------------------------
    
  • +
    ¡Colabora con nosotros!
    Envíanos tu versión de esta canción

Letra de Veneno para olvidar
Para olvidar tu querer chiquita
para dejarte de amara negrita
voy a tomar veneno para olvidar
Y quiero que al morir mis ojos
no llores por este amor que nunca
supiste amar supiste corresponder
Voy a tomar veneno para olvidarte
no quiero seguir sufriendo
quiero olvidar este afecto
quiero morir quiero apargar mi dolor
Si saber cuanto te quiero
si saber cuanto te amo
por que razon por que me niegas tu amor
voy a tomar veneno para olvidarte
voy a tomar veneno para olvidarte



© LaCuerda.net · aviso legal · privacidad · contacto