Acordes de Guitarra » S »Sombras » Un sorbito de Champán (Tab)

Un sorbito de Champán
Sombras

Letras, Acordes y Tabs para Guitarra, Bajo y Ukulele

  • e-------------------------------------------------------------
    b--4h5-5-5-4-----4-----------4h5--5--5--4-----4---------------
    g-------------6----6-----------------------6-----6--------------
    d---------------------6-----------------------------6----------
    a-----------------------------------------------------------
    e--------------------------------------------------------------
    
    e-------------------------------------------------------------
    b------------------------------------------------------------
    g--6h8--8-8--6--4--6--4-----6h8--8--8--6--4--6--4----------------
    d-----------------------4--------------------------4-----------
    a-----------------------------------------------------------
    e---------------------------------------------------------------
    
    este no es el final pero suena bn tamb :D
    e---------------------------
    b------------------------------------
    g---4h6--4-----------------------4--4h6----
    d-----------6--4----------4--6------
    a-----------------6----6-----------
    
  • +
    ¡Colabora con nosotros!
    Envíanos tu versión de esta canción

Letra de Un sorbito de Champán
este no es el final pero suena bn tamb :D
teclado : base en do#m y si
Yo te estoy mirando desde lejos.
Ya no puede estar acá en silencio,
sin decirte nada estoy sufriendo.
Por este imenso amor que llevo dentro.
Ay quizás mi corazón cansado de esperar
por ese beso tuyo que no me quieres dar.
Ay quizás mi corazón cansado de esperar
por ese beso tuyo que pronto llorara.
Un sorbito de Champagne
contigo quiero brindar
para ver si así me das
un poco de felicidad.
este no es el final pero suena bn tamb :D
tecla si - Do#m
Voy a brindar por ti mi vida.
Y
Yo te estoy mirando desde lejos.
Ya no puede estar acá en silencio,
sin decirte nada estoy sufriendo.
Por este imenso amor que llevo dentro.
Ay quizás mi corazón cansado de esperar
por ese beso tuyo que no me quieres dar.
Ay quizás mi corazón cansado de esperar
por ese beso tuyo que pronto llorara.
Un sorbito de Champagne
contigo quiero brindar
para ver si así me das
un poco de felicidad.
ahi esta el tema por ahi en donde corta en sol si do
esta un toke mal pero safa
buen para los q pedia en tema ahi masomenos esta
di3.vo@hotmail.com cualkier cosa
EL AKORDE




[Un sorbito de Champán chords][Un sorbito de Champán cifra]
© LaCuerda.net · aviso legal · privacidad · es · en · pt · contacto
DINAMICO