Acordes de Guitarra » S »Sombras » Para que (Tab)

Para que
Sombras

Letras, Notas, Punteos, Tablaturas y Acordes de Guitarra (Tabs & Chords)

  • Letra y Acordes
     Dm             C
    Que manera mas tonta de perderte
                     Dm
    si me muero de ganas de verte
    Dm             C
    que manera mas tonta de perderte
                     Dm
    si me muero de ganas de verte
    
                 C
    Comprendi demasiado tarde
                 Dm
    que sin ti hasta me falta el aire
                 C
    comprendi demasiado tarde
                 Dm                   C
    que sin ti hasta me falta el aire
    
      F              C
    Para que quiero mis ojos
    
  • Tablatura
    Este intro lo tocan en el disco con guitarra y teclado y se repite
    a lo largo de la cancion.
    Por ejemplo se vuelve a repetir a los (0:51 - 1:03)
    
    
    E|-----------------|-----------------------|--------------------|
    B|6-6-6-6-6-5-6-5--|--3--3-3-3-3-3--1------|-6--6--6--6-6--5-6-5|
    G|-----------------|-------------------2---|--------------------|
    D|-----------------|----------------------3|--------------------|
    A|-----------------|-----------------------|--------------------|
    E|-----------------|-----------------------|--------------------|
    
    
    E|------------------------------|
    B|--3--3--3--3--3--3--1---------|
    G|-----------------------2------|
    D|--------------------------3---|  Esta parte la repite 2 veces
    A|------------------------------|
    E|------------------------------|
    
    
    E|-1-1-1-1-1-1-0-1-0-|--3--3-3-3-3-3--1-3-1--|
    B|-------------------|-----------------------|
    G|-------------------|-----------------------|
    D|-------------------|-----------------------|
    A|-------------------|---------
  • +
    ¡Colabora con nosotros!
    Envíanos tu versión de esta canción

Letra de Para que
Que manera mas tonta de perderte
si me muero de ganas de verte
que manera mas tonta de perderte
si me muero de ganas de verte
Comprendi demasiado tarde
que sin ti hasta me falta el aire
comprendi demasiado tarde
que sin ti hasta me falta el aire
Para que quiero mis ojos
si ya no puedo verte
para que quiero mis labios
si ya no puedo besarte
para que quiero mi amor
si ya no puedo amarte...amarte



© LaCuerda.net · Aviso Legal · Privacidad