Acordes de Guitarra » S »El Soldado » Angel de los perdedores (Tab)

Angel de los perdedores
El Soldado

Letras, Acordes y Tabs para Guitarra, Bajo y Ukulele

  •   Am            Am/G          D/F#        F
    e|------------|------------|------------|------------|
    B|------1-----|-------2----|-------3----|------1-----|
    G|--------2---|----2-------|----2-------|---2-----2--|
    D|----2-------|------------|------------|------------|
    A|-0----------|------------|------------|------------|
    E|------------|-3----------|-2--------2-|-1----------|
    
    
    (la 1º estrofa todo con intro hasta casi la segunda)
    
    Am       Am/G             D/F#      F           (Am Am/G D/F# F)
    Apretando bien el paquete apuraste fuera ese vaso
    Am       Am/G             D/F#        F           (Am Am/G D/F# F)
    saliste corriendo a la calle que te estaba llamando
    Am       Am/G             D/F#      F         (Am Am/G D/F# F)  
    'la puta, que feo que fuese sin la margarita
    Am          Am/G      D/F#      F        (Am Am/G D/F# F) 
    las sirenas estan sonando y yo sin agua bendita'
    
    
  •    LAm               LAm/SOL           LAm/FA#        FA
    E|----------------|---------------|---------------|------------------|
    B|----------1-----|-------------1-|------------1--|-------------3----|
    G|----------------|---------------|---------2-----|-----------2---2--|X2
    D|-----2-------2--|-------2-------|---------------|------------------|
    A|--0-------------|---------------|---------------|------------------|
    E|----------------|---3-----------|--2-----------2|-----1------------|
    
    
    VERSO 1:
      LAm               LAm/SOL           LAm/FA#        FA
    E|----------------|---------------|---------------|------------------|
    B|----------1-----|-------------1-|------------1--|-------------3----|
    G|----------------|---------------|---------2-----|-----------2---2--|X7
    D|-----2-------2--|-------2-------|---------------|------------------|
    A|--0-------------|---------------|---------------|------------------|
    E|----------------|---3-----------|--2-----------2|-----1------------|
    
    
    Am       Am/G             LAm/F#      F           (Am Am/G LAm/F# F)
    
  •    Am               Am               F        
    E|---------------------------------------------------------------------------|
    B|----------1-------------------1--------------1-------------------3-----1---|
    G|---------------------------------------------------------------------------|
    D|-----2-------2----------2--------------2-------------------2---------------|
    A|--0------------------------------------------------------------------------|
    E|--------------------3--------------2-------------2----1--------------------|
    
    RIFF1:
    
    Apretando bien el paquete, apuraste ese vaso
    Saliste corriendo a la calle, que te estaba llamando
    La puta que feo que fuese sin la margarita
    Las sirenas estan sonando y yo sin agua bendita
    
    RIFF1:
    
    La noche que rompe la copa, vendiendote ilusiones
    dejandote retazos de vientos por los rincones
    pero nena tu risa es la magia de los rocanroles
    
  • +
    ¡Colabora con nosotros!
    Envíanos tu versión de esta canción

Letra de Angel de los perdedores
(la 1º estrofa todo con intro hasta casi la segunda)
Apretando bien el paquete apuraste fuera ese vaso
saliste corriendo a la calle que te estaba llamando
'la puta, que feo que fuese sin la margarita
las sirenas estan sonando y yo sin agua bendita'
La noche te rompe la copa vendiendote ilusiones
dejándote retazos de suños por los rincones
'pero, nena, tu risa es la magis de los rocanroles
tatuada llevo la marca de tus aguijones'.
Curaste todas tus heridas con agua podrida
Le mentiste al diablo tres veces vendiéndole flores
Y te llevaste en andas al angel de los perdedores
Escondiste tods tur recuerdos en una guarida
jurando que nunca dirías alguna mentira
pero vienes de esos callejones que funden alcoholes
donde solo campeonan los peores
Curaste todas tus heridas con agus podrida
le mentiste al diablo tres veces vendiendole flores
y te llevaste en andas al angel de los perdedores.
cualquier duda a rampugh@yahoo.com
AGUANTE EL SOLDADO Y LOS REDONDOS !!!!!!!!!!!!!!!




[Angel de los perdedores chords][Angel de los perdedores cifra]
© LaCuerda.net · aviso legal · privacidad · es · en · pt · contacto