Acordes de Guitarra » S »Solar » Lo que eres (Tab)

Lo que eres
Solar

Letras, Acordes y Tabs para Guitarra, Bajo y Ukulele

  •    B   D#m   F#   C#m7   D#m7   B1   C#m   G#m    A
    E)-7-|--6--|--2--|--4--|--6--|--x--|--4--|--4--|--5--|
    B)-7-|--7--|--2--|--5--|--7--|--5--|--5--|--4--|--5--|
    G)-8-|--8--|--3--|--4--|--6--|--4--|--6--|--4--|--6--|
    D)-9-|--8--|--4--|--6--|--8--|--4--|--6--|--6--|--7--|
    A)-9-|--6--|--4--|--4--|--6--|--2--|--4--|--6--|--7--|
    E)-7-|--x--|--2--|--x--|--x--|--x--|--x--|--4--|--5--|
    INTRO:
    
    
    Fig1
    
         B
    E/---------------------
    B/---------------------
    G/---------------------
    D/-------4-6p4---4-----
    A/---4h6-------6-------
    E/---------------------
    
    
  • +
    ¡Colabora con nosotros!
    Envíanos tu versión de esta canción

Letra de Lo que eres
E)-7-|--6--|--2--|--4--|--6--|--x--|--4--|--4--|--5--|
G)-8-|--8--|--3--|--4--|--6--|--4--|--6--|--4--|--6--|
A)-9-|--6--|--4--|--4--|--6--|--2--|--4--|--6--|--7--|
Fig1
Fig2
-
ESTROFA
Robar un poco de sueño y de verdad,
quien sabe, a donde voy
Tomaré el control la calle alrededor
sentiré el aire del color
PRECORO:
Sin sombras del sol
La noche es luminosa aa
porque deslumbra y acerca
(X2)
ESTROFA:
Ella no se ve tarde al anochecer,
quien sabe, como será
Y te confiaré que no es parte de mi
si es ella al despertar
PRECORO:
Sin sombras del sol
La noche es luminosa aa
al no perderte de vistaa
(X2)
RUPTURA
Fig3(x2)
Fig3
Porque deslumbraaas, al descubrirte maaas
al descubrirte maaas
by glenmateo123

Video de Lo que eres
[]




[Lo que eres chords][Lo que eres cifra]
© LaCuerda.net · aviso legal · privacidad · es · en · pt · contacto