Acordes de Guitarra » S »Ska-P » Reality Show (Tab)

Reality Show
Ska-P

Letras, Acordes y Tabs para Guitarra, Bajo y Ukulele

  • Reality Show - Ska-p
    
    Intro y Riff: (Escucha Bien El Tiempo)
    
    E-2-5-4-2-2-5-5-0-0-2--2-5-4-2-2-5-5-0-I <---- (6ta. Cuerda)
    
    
    
    Solo yo en el sillón, sentado frente al televisor
    No se que hacer, qué puedo ver, algún misterio sin resolver
    Una mujer se suicidó, tenía problemas con el alcohol
    Se tiró por el balcón y se cargó a un pobre peatón
    
    Aca Podes Hacer Un Riff Con: F#5-A5-E5
    
    Apaga el televisor, reality show
    Televisión horror, reality show
    El show del terror, reality show
    Televisión dolor, reality show
    
    Corte De Teclado: Seria Algo Así:
    
    e--------------------------------------------------------------I
    b--------------------------------------------------------------I
    g--------------------------------------------------------------I
    d--------------------------------------------------------------I
    a-----------1-2----------------------2-1-----------------------I
    E-2-5-4-2-5-----2-2-2-0-2--2-5-4-2-5-----2-0-2-----------------I
    
    
    E-2-5-4-2-2-5-5-0-0-2--2-5-4-2-2-5-5-0-I <--
  •          F#m  A    E     F#m           A    E
    e|---------------------------------------------|
    B|---------------------------------------------|
    G|---------------------------------------------|
    D|---------------------------------------------|
    A|---------------------------------------------|
    E|-2-5-4-2--2-5--5-0--0--2--2-5-4-2--2-5--5-0--|
    PM * * * *  * *  * *  *  *  * * * *  * *  * *
    
    Verso:
    F#m   A     E    F#m                       A   E
     Solo yo en el sillón, sentado frente al televisor
    F#m          A        E     F#m                     A    E
     No se que hacer, qué puedo ver, algún misterio sin resolver
    F#m    A      E F#m                        A    E
     Una mujer se suicidó, tenía problemas con el alcohol
    F#m   A      E     F#m                       A  E
     Se tiró por el balcón y se cargó a un pobre peatón
    
    Coro:
    
  • +
    ¡Colabora con nosotros!
    Envíanos tu versión de esta canción






[Reality Show chords][Reality Show cifra]
© LaCuerda.net · aviso legal · privacidad · es · en · pt · contacto