Acordes de Guitarra » S »Ska-P » Niño soldado (Tab)

Niño soldado
Ska-P

Letras, Acordes y Tabs para Guitarra, Bajo y Ukulele

  • D5        A5                G5     A5-D5
       Fui a nacer donde no hay nada
              A5          G5                   A5-D5
    Tras esa línea que separa el bien del mal
              A5          G5     A5-D5
    Mi tierra se llama miseria
            A5        G5
    Y no conozco la palabra libertad
    
    -Aki la guitarra 1 barre la pua por las cuerdas-
    
    
    -Guitarra 1 y 2 juntas
    
    D5            A5            G5     D5
       Fui secuestrado en una guerra
          A5        G5             D5
    Torturado y preparado pa matar
                  A5          G5     D5
    Me han convertido en una bestia
    
  • D       A                G
    Fui a nacer donde no hay nada
    D        A           G            
    tras esa línea que separa el bien del mal
    D         A          G
    mi tierra se llama miseria
    D       A         G
    y no conozco la palabra libertad
    
    [II)
    Fui secuestrado en una guerra
    torturado y preparado pa` matar
    me han convertido en una bestia
    soy solo un niño que no tiene identidad
    
    
    [CORO)
    
    B                      D
    Me han obligado a disparar
    
  • D        A                G       *A
    Fui a nacer donde no hay nada
    D        A           G                    *A
    tras esa línea que separa el bien del mal
    D         A          G        *A
    mi tierra se llama miseria
    D       A         G                *A
    y no conozco la palabra libertad
    
    ACA VA SIN EL PUENTE CON LA BASE DE D-A-G
    
    Fui secuestrado en una guerra
    torturado y preparado pa` matar
    me han convertido en una bestia
    soy solo un niño que no tiene identidad
    
    
    ESTRIBILLO
    
    B                       A-D A-D A-B
    
  • D5        A5                G5     A5-D5
       Fui a nacer donde no hay nada
              A5          G5                   A5-D5
    Tras esa línea que separa el bien del mal
              A5          G5     A5-D5
    Mi tierra se llama miseria
            A5        G5
    Y no conozco la palabra libertad
    
    
    D5            A5            G5     D5
       Fui secuestrado en una guerra
          A5        G5             D5
    Torturado y preparado pa matar
                  A5          G5     D5
    Me han convertido en una bestia
                 A5           G5
    Soy sólo un niño que no tiene identidad
    B5                       A5-D5  A5-D5   B5
       Me han obligado a disparar
    
  • A)
    E------2-5-7-5--5-7-9-10--10-9-7-5--
    B--3-3------------------------------
    G-----------------------------------
    D-----------------------------------
    A-----------------------------------
    E-----------------------------------
    
    E------2-5-7-5--5-5-7-2-3--15-14-15-17--
    B--3-3----------------------------------
    G---------------------------------------
    D---------------------------------------
    A---------------------------------------
    E---------------------------------------
    
    E------2-5-7-5--5-7-9-10--10-9-7-5--
    B--3-3------------------------------
    G-----------------------------------
    D-----------------------------------
    A-----------------------------------
    
  • RE5     LA5              SOL5  LA5
    Fui a nacer donde no hay nada
    RE5      LA5         SOL5  LA5
    tras esa línea que separa el bien del mal
    RE5       LA5        SOL5  LA5
    mi tierra se llama miseria
    RE5     LA5       SOL5
    y no conozco la palabra libertad
    
    
    RE5     LA5              SOL5
    Fui secuestrado en una guerra
    RE5     LA5              SOL5
    torturado y preparado pa` matar
    RE5     LA5              SOL5
    me han convertido en una bestia
    RE5     LA5              SOL5
    soy solo un niño que no tiene identidad
    
    
    
  • El bajo empieza al final de la primera estrofa...hace esto:
    
    G----------------------------
    D----------------------------
    A----------------------------
    E--5s10-10-10-10s5-----------
    
    Verso 'Fui secuestrado...'
    
    G---------------------------------------------------------------------
    D---------------------------------------------------------------------
    A-55555555-----------------------55555555-----------------------------
    E----------55555555-333333333333----------55555555-333333333333-55-33-(x2)
    
    'Me han oligado a diparar...'
    
    G------------------------------------------------------------------------------------------------------
    D-----------------------------------------------------------------7-5----------------------------------
    A------------------0-5555-0-5555-0------------------5555555555555-----7-5--------------0-5555-0-5555-0-
    E-5-6-7-7777777777-----------------5-6-7-7777777777-----------------------7-7777777777-----------------
    
    'En un infierno terrenal...'
    
    G----------------------
  • +
    ¡Colabora con nosotros!
    Envíanos tu versión de esta canción

Letra de Niño soldado
Fui a nacer donde no hay nada
Tras esa línea que separa el bien del mal
Mi tierra se llama miseria
Y no conozco la palabra libertad
-Aki la guitarra 1 barre la pua por las cuerdas-
-Guitarra 1 y 2 juntas
Fui secuestrado en una guerra
Torturado y preparado pa matar
Me han convertido en una bestia
Soy sólo un niño que no tiene identidad
me han obligado a disparar
me han enseñado cómo asesinar
me han obligado a mutilar
en un infierno terrenal
-guitarra 1 y 2
¡EH! NO TU INDIFERENCIA NO TIENE PERDÓN
¿QUIÉN TE ROBÓ EL CORAZÓN?
NO TE LEVANTES DEL SILLÓN
¡EH! NO TU INDIFERENCIA NO TIENE PERDÓN
¿QUIÉN TE ROBÓ EL CORAZÓN?
APAGA LA TELEVISIÓN
-guitarra 1 y 2 con ritmo de ska
-Guitarra 1 y 2
Una pistola en mi cabeza
Me está obligando a asesinar a mi papá
Soy una máquina de guerra
Mi dedo aprieta ese gatillo sin mirar
me han obligado a disparar
me han enseñado cómo asesinar
me han obligado a mutilar
en un infierno terrenal
-Guitarra 1 y 2
¡EH! NO TU INDIFERENCIA NO TIENE PERDÓN
¿QUIÉN TE ROBÓ EL CORAZÓN?
NO TE LEVANTES DEL SILLÓN
¡EH! NO TU INDIFERENCIA NO TIENE PERDÓN
¿QUIÉN TE ROBÓ EL CORAZÓN?
APAGA LA TELEVISIÓN
Guitarra 2 con ritmo de ska
-Guitarra 1 haciendo requinto
-Guitarra 1 y 2
me han obligado a disparar
me han enseñado cómo asesinar
me han obligado a mutilar
en un infierno terrenal
-Guitarra 1 y 2
¡EH! NO TU INDIFERENCIA NO TIENE PERDÓN
¿QUIÉN TE ROBÓ EL CORAZÓN?
NO TE LEVANTES DEL SILLÓN
¡EH! NO TU INDIFERENCIA NO TIENE PERDÓN
¿QUIÉN TE ROBÓ EL CORAZÓN?
APAGA LA TELEVISIÓN
-guitarra 1 y 2 con ritmo de ska




[Niño soldado chords][Niño soldado cifra]
© LaCuerda.net · aviso legal · privacidad · es · en · pt · contacto