Acordes de Guitarra » S »Ska-P » El vals del obrero (Tab)

El vals del obrero
Ska-P

Letras, Acordes y Tabs para Guitarra, Bajo y Ukulele

  •                  F                C
    Orgulloso de estar en el proletariado
     A#                    F                C
    Es difícil llegar a fin de mes sin tener ke sudar y sudar
                          F C
    Pa ganar nuestro pan
               F                                                     C
    Este es mi sitio esta es mi gente somos obreros la klase preferente
    A#                         F                            C
    Por eso hermano proletario kon orgullo yo te kanto esta kancion
      F
    Somos la revolucion
         C
    si señor la revolucion
                A#          F
    si señor si señor somos la revolucion
    C
    Tu enemigo es el patrón
               A#             F
    si señor si señor somos la revolucion
    
  • Este es el punto que hace joxemi cuando pulpul dice:
    "baila hermano, el vals del obrero"...
    Es bastante facil y se debe hacer con una distorcion (cuanto
    mas podridita mejor)...
    Salud
    
    e|---------------------|---------------------|
    B|---------------------|---------------------|
    G|---------------------|---------------------|
    D|-----------3-5-3-5-3-|5-3-5-3--2-3-5-3-2-3-|
    A|---------3-----------|---------------------|
    E|-5--4--5-------------|---------------------|
    
    e|-----------|---------------------|--------------------|
    B|-----------|---------------------|--------------------|
    G|--------7b-|---------------------|--------------------|
    D|-----2-----|----------2--3-2-3-2-|3-2-3-2---2-3-2-----|
    A|---3-------|--------3------------|--------5-------5-3-|
    E|-5---------|-6--5-6--------------|--------------------|
    
    e|------------------|
    B|------------------|
    G|------------------|
    D|---5--3-3-3-3-3-3-|
    A|-5----------------|
    E|------------------|
    
    
    Despues, tambien joxemi, se hace un punto todo hec
  •     F   C   A#  A   G
    E---1---3---1---5---3---
    B---1---5---3---5---3---
    G---2---5---3---6---4---
    D---3---5---3---7---5---
    A---3---3---1---7---5---
    E---1---1---1---5---3---
    
                     F               C
    Orgulloso de estar en el proletariado
          A#                   F                C
    Es difícil llegar a fin de mes sin tener ke sudar y sudar
                      F C
    Pa ganar nuestro pan
    
                 F                                                C
    Este es mi sitio esta es mi gente somos obreros la klase preferente
                A#                     F                       C
    Por eso hermano proletario kon orgullo yo te kanto esta kancion
                     F          C                A#
    
  • 'Orgulloso de estar...'
    
    G----------------------------------------------------------
    D---------------------------------3-3----------------------
    A---3---3-0-1-3---3---3-2-1---1-3-----0-1-3---3----3-1-2-3-
    E-1---1---------3---3-------1---------------3----1---------
    
    'Y este es mi sitio...'
    
    G-----------------------------------------------22-333-444-55-777-88-99-1010-99-88-77-----
    D---------------------------------22-333-444-55---------------------------------------8s0-
    A---0-1-2-3---0-1-2-3---0-1-2-3-3---------------------------------------------------------
    E-1---------1---------1-------------------------------------------------------------------
    
    'Por eso hermano...'
    
    G-------------------------------------
    D---0-3-2-1-0-------------2-5-3-2-----
    A-1-------------0-1-2-2-3---------5-3-
    E-------------1-----------------------
    
    'Somos la revolución...'
    
    G-----------------------------------------------------------------------------
    D-------------2-5-3-2-----0-3-2-1-0
  • VERSION REMEJORADA... PROBAR CON LA ZOOM A UN METRONOMO a 100BMP tocando 
    a 4 tiempo para cada compas
    
    G||---------------------|-----------------------|----------------------|
    D||---------------------|-----------------------|----------------------|
    A||---------3-----------|----3--0--1--3---------|------3---------3--2--|
    E||--1-------------1----|--------------------3--|-------------3--------|
    
    -----------------------|-----------------------|-------------------|
    ------------------3----|----3------------------|-------------------|
    --1---------1--3-------|----------1--3---------|------3------------|
    ---------1-------------|-------5------------3--|-------------------|
    
    ---------------------|--------------------|------------------------|
    ---------------------|--------------------|------------------------|
    ---------3------3----|---------------0----|--1---1-2--3-------0----|
    --1------------------|----------1---------|--------------1---------|
    
    ------------------------|-------
  • +
    ¡Colabora con nosotros!
    Envíanos tu versión de esta canción

Letra de El vals del obrero
Orgulloso de estar en el proletariado
Es difícil llegar a fin de mes sin tener ke sudar y sudar
Pa ganar nuestro pan
Este es mi sitio esta es mi gente somos obreros la klase preferente
Por eso hermano proletario kon orgullo yo te kanto esta kancion
Somos la revolucion
si señor la revolucion
si señor si señor somos la revolucion
Tu enemigo es el patrón
si señor si señor somos la revolucion
viva la revolucion
Estoy hasta los kojones de aguantar a sanguijuelas
Los ke me roban mi vitilidad
Mi vida se konsume soportando esta
rutina ke me ahoga kada dia mas
Felipe el empresario, mas kalles en mis manos
Mis riñones van a reventar
No tengo un puto duro pero sigo
kotizando me ha kostado el bienestar ARRIBA
VUELVE A REPETIRCE CON LOS MISMOS
ACORDES Y CON LOS MISMOS RITMOS
Baila hermano el vals del obrero
Este es mi sitio, ésta es mi gente
somos obreros, la clase preferente
por eso, hermano proletario, con orgullo
yo te canto esta canción, somos la revolución.
¡si señor!, la revolución,
¡si señor!,¡si señor!, somos la revolución,
tu enemigo es el patrón,
¡si señor!, ¡si señor!, somos la revolución,
viva la revolución.
En esta democracia hay mucho listo que se
lucra exprimiendo a nuestra clase social.
les importa cuatro huevos si tienes catorce
hijos y la abuela no se puede operar.
Somos los obreros, la base de este juego
en el que siempre pierde el mismo "pringao",
un juego bien pensado, en el que nos tienen
callados y te joden si no quieres jugar.
¡Resistencia!
¡Resistencia!
¡Resistencia!
ska, ska, ska, ska
¡Resistencia!
¡Resistencia!
¡Resistencia!
¡Resistencia!
¡Resistencia!
¡Resistencia!
¡¡Insistimos!!
¡Resistencia!
¡Resistencia!
¡Resistencia!
¡Resistencia!
¡Resistencia!
¡De-so-be-den-cia!




[El vals del obrero chords][El vals del obrero cifra]
© LaCuerda.net · aviso legal · privacidad · es · en · pt · contacto