Acordes de Guitarra » S »Sinergia » Jefe (Tab)

Jefe
Sinergia

Letras, Acordes y Tabs para Guitarra, Bajo y Ukulele

  • ---------------------------------------------------------------------
    figuras q se tocan:
    
       e||-----------------------------------------||
       B||-----------------------------------------||
    A) G||-----------------------------------------||
       D||---------------------------------0-------||
       A||----2-2-------2-2------2---332233-------||
       E||--3-----3---3-----3--3---3--------3-------||
    
         (es lo mismo q el anterior pero cada nota se toca casi el doble)
       e||-----------------------------------------||
       B||-----------------------------------------||
    B) G||-----------------------------------------||
       D||---------------------------------0-------||
       A||----2-2-------2-2------2---332233--------||
       E||--3-----3---3-----3--3---3--------3------||
    
       e||--10--10--10--10--10--10--8--8----||
       B||--12--12--12--12--12--12--8--8----||
    
  • +
    ¬°Colabora con nosotros!
    Envíanos tu versión de esta canción

Letra de Jefe
figuras q se tocan:
(es lo mismo q el anterior pero cada nota se toca casi el doble)
Jefe, ¬Ņa usted le gusta la platita?
A mi también,
Jefe, ¬Ņest√° conforme con su sueldo?
A) Yo pa n√°¬Ö
Jefe, ¬Ņa usted le gusta trabajar?
A mi si, con mejores condiciones
Jefe, ¬Ņhay que quedarse hasta m√°s tarde?
Shaaaa, ¬°otra vez!
Auuuuuuuu¬Ö au¬Ö au¬Ö au
B) Auuuuuuuu¬Ö au¬Ö au¬Ö au
Auuuuuuuu¬Ö au¬Ö au¬Ö au
Auuuuuuuu¬Ö au¬Ö au¬Ö au
Jefe, usted tiene éxito
Todo lo acierta, a todo le achunta
A usted le va bien
Por m√°s que le pongo talento, le pongo empe√Īo
No consigo ascender como usted
C) Jefe, usted tiene éxito
Todo lo acierta, a todo le achunta
A usted le va bien
Yo le tengo mucho respeto,
Le tengo estima,
Pero a veces lo mandaría a la %$#/*#!
Usted es jefe y la lleva
Usted sabe cómo y cuánto
Usted toma decisiones
D) Y define lo que yo debo hacer
Yo le ordeno su agenda
Le cubro la espalda
Le soluciono todo
Pero usted no me da bola
Sube la luz, la bencina
El agua, la micro
Sube el gas, el metro
E) Y usted no me da incentivo
Sube el arriendo
Me la paso trabajando
Usted no me toma en cuenta
No me sube el sueldo
Jefe, ¬Ņley√≥ el C√≥digo da Vinci?
Yo también!!
Jefe, ¬Ņle gusta el rock chileno?
B) ¬ŅAh no?¬Ö ¬°hay super buenas bandas!
Jefe, ¬Ņa usted le gusta su se√Īora?
Hum, a mi también
Jefe, ¬Ņtiene secretaria nueva?
Pillín, pillín
Auuuuuu¬Ö auuuuu¬Ö auuuu¬Ö auuuuu
Auuuuuu¬Ö auuuuu¬Ö auuuu¬Ö auuuuu
Auuuuuu¬Ö auuuuu¬Ö auuuu¬Ö auuuuu
Auuuuuu¬Ö auuuuu¬Ö auuuu¬Ö auuuuu
Sube la luz, la bencina
El agua, la micro
Sube el gas, el metro
Y usted no me da incentivo
E) Sube el arriendo
Me la paso trabajando
Usted no me toma en cuenta
No me sube el sueldo
Jefe
¡Escuché unos rumores!
B) ¡Reducción de personal!
¬°Jefe, lo echaron de la pega!
¡A mi también!
(Q viva el rock chileno danislash 15 a√Īos)




[Jefe chords][Jefe cifra]
© LaCuerda.net · aviso legal · privacidad · es · en · pt · contacto