Acordes de Guitarra » S »Silvio Rodriguez » Tu Sonrisa Ha Cambiado (Tab)

Tu Sonrisa Ha Cambiado
Silvio Rodriguez

Letras, Notas, Punteos, Tablaturas y Acordes de Guitarra (Tabs & Chords)

  • Letra y Acordes
    Intro: MIdim SI FA#dim DO# REdim FAdim FA#m 
    MIdim SIm (V-2_4_5) REdim 
    VI-4-V-0-2-Do# Fa# Si Mi La IV-4 
    SI LA MI  LA SI MI  LA SI MI 
    
        MI               SOL#m 
    El polvo y el tiempo acumulados 
               LA                      MI 
    sobre tu esperanza, se olvidaron de ser. 
        SI (II-5-4)           FA#m (I-4-2) 
    Se han ido fugando de tus ojos, 
    
                                
    SI (II-5-4)               MI           SI LA 
    dándole sitio a luces propias de una mujer. 
        MI           SI    LA  SOL#m 
    Por eso tu sonrisa ha cambiado 
    LA       MIbdim                          LA 
    algo en este invierno, que ya no pasará 
          MIdim 
    
  • Tablatura
    E  +------6-5-----------------8-----7------------------4----+
    B  |----5-----8-------7-----7-----7---10-------9-----3------|
    G  |--6-------------5-----8-----8------------7-----4-------7|
    D  |5-------------7-----7------------------9-----3-------6--|
    A  |------------5------------------------7------------------|
    E  +--------------------------------------------------------+
    
    
    E  +8-7-------------6-5----------------------------------2--+
    B  |6---5---------------3-----------9-8----------0---2---3--|
    G  |----------5---6------------------------------1---2------|
    D  |--------7---5-------5---------9------------2-------0----|
    A  |------7---------------1-2-5-8--------2-3-5-----0--------|
    E  +----5--------------------------------------------------3+
    
    
    E  +----------------0---3-------------3-----5---3-----------+
    B  |0 --------3-----------3---------5-----7-----3-3-------3-|
    G  |0----- -2-----0---------4---4---5-----7-----4---4---4---|
    D  |----2-0-------------------5-----5-----7-----------5-----|
    
  • +
    ¡Colabora con nosotros!
    Envíanos tu versión de esta canción

Letra de Tu Sonrisa Ha Cambiado
VI-4-V-0-2-Do# Fa# Si Mi La IV-4
El polvo y el tiempo acumulados
sobre tu esperanza, se olvidaron de ser.
Se han ido fugando de tus ojos,

dándole sitio a luces propias de una mujer.
Por eso tu sonrisa ha cambiado
algo en este invierno, que ya no pasará
sin luz
como todos los inviernos,
tenaz
como todos los inviernos,
feroz
como todos lo inviernos.
éstas desafiando a la ciudad,
Si/Mib Si/Re
a aquella señora que hace bien el café,
al manso marido que despierta a las seis
y al tonto reloj del Rey.
No sabes cuánto de subversivo
vive en una sonrisa que no quiere comprar,
y cuánto de muerte hacia el pasado
que se incrusta en los dedos
cual resto de humedad.
La historia choca contra tu saya
y se hace remolinos que huyen del amor
como se dice que huyen los demonios
de las estancias crueles para el odio.
Bendita está tu risa.
Tomen en cueta que los acordes se corren un poco, por eso hay que escuchar
la cancion para darle la nota mas exacta.



© LaCuerda.net · Aviso Legal · Privacidad