Acordes de Guitarra » S »Silvio Rodriguez » Mariposas (Tab)

Mariposas
Silvio Rodriguez

Letras, Acordes y Tabs para Guitarra, Bajo y Ukulele

  •    RE9                                     LA
    A)Hoy viene a ser como la cuarta vez que espero
     RE9                              LA
    desde que se que no vendrás mas nunca
     DO7                               FAd7+
    he vuelto a ser aquel cantor del aguacero
     DO7                                FAd7+
    que hizo casi legal su abrazo a tu cintura.
       MI4 
    y tu apareces, por mi ventana
       SId7
    suave pequeña, con alas blancas
       LAd
    yo ni respiro, para que duermas
       MI4  MI
    y no te vayas.
    
       RE             (V-4·2)LA
    B)Que maneras mas curiosas
     RE        (V-4·2) LA
    
  • LA toca silvio
    
    
    RE                        LA
     Hoy viene a ser como la cuarta vez que espero
     RE                              LA
    desde que se que no vendrás mas nunca
    (v-0-2-3)DO                           FA+7
      he vuelto a ser aquel cantor del aguacero
    (v-0-2-3) DO                            FA+7
      que hizo casi legal su abrazo a tu cintura.
       LAm 
    y tu apareces, por mi ventana
       MI7sus
    suave pequeña, con alas blancas
             DO dis
    yo ni respiro, para que duermas
            MI
    y no te vayas.
    
    
  • A                                 D9
    
    -----------0-----0-----0-----0----------0-----0-----0-----0-----0-
    -----0h2-----2-----2-------2----------3-----3-----3-----3-----3---
    ---2-----2-----2-----2---2-----2----2-----2-----2-----2-----2-----
    2---------------------------------0-------------------------------
    0-----------------------------------------------------------------
    ------------------------------------------------------------------
    
    A                                 C+7           C6
    
    ------------0---------0-------------------0-----------------------
    ------0h2-----2---2-------2-----0-------0---0-----0-1---3---1-p0--
    ----2-----2-----2---2---2---2-2-------0-------0-2-----2---2------2
    2-2---------------2-----------------2-----------------------------
    0---------------------------------3-------------------------------
    ------------------------------------------------------------------
    
    F+7/4                            C+7
    
    
  • e|---------*12------------0--
    B|------*12----------0-------
    G|-----------------2---------
    D|----*7---------2-----------
    A|--*7---------0-------------
    E|---------------------------
    
    e|--------*12-----*12---*12---*12---*12---*12-----------------------|
    B|-----*12------*12---*12---*12---*12---*12---*12---*12-------------|
    G|------------------------------------------------------------------|
    D|---*7--------*7----*7----*7----*7----*7----*7----*7----*7--*7-----|
    A|-*7---------*7----*7----*7----*7----*7----*7----*7----*7--*7---*7-|
    E|------------------------------------------------------------------|
    
    
    e|-----7-------------7~--------7~-
    B|---------10~----2------10~------
    G|-------9------2------9-----9----
    D|-------------2------------------
    A|--0-----------------------------
    
  • +
    ¡Colabora con nosotros!
    Envíanos tu versión de esta canción

Letra de Mariposas
A)Hoy viene a ser como la cuarta vez que espero
desde que se que no vendrás mas nunca
he vuelto a ser aquel cantor del aguacero
que hizo casi legal su abrazo a tu cintura.
y tu apareces, por mi ventana
SId7
suave pequeña, con alas blancas
LAd
yo ni respiro, para que duermas
y no te vayas.
B)Que maneras mas curiosas
de recordar tiene uno
que maneras mas curiosas
hoy recuerdo mariposas
que ayer solo fueron humo
mariposas, mariposas
que emergieron de lo oscuro
bailarinas, silenciosas...
Tu tiempo es ahora una mariposa
navecita blanca, delgada, nerviosa
siglos atrás inundaron un segundo
debajo del cielo, encima del mundo.
VI-0·2·3 DO IV-2·0 V-3·2·0 VI-3·2 SOL IV-0
V-3·2·0 VI-3 RE/FA# VI-0·2·3 V-3·2 LA7
A)Así eras tu en aquella tarde, divertida
así eras tu de furibunda compañera
eras como esos días en que eres la vida
y todo lo que tocas se hace primavera
ay mariposa!, tu eres el alma
de los guerreros que aman y cantan
y eres el nuevo ser, que hoy se asoma
por mi ventana.
B)Que manera mas curiosa...




[Mariposas chords][Mariposas cifra]
© LaCuerda.net · aviso legal · privacidad · es · en · pt · contacto