Acordes de Guitarra » S »Silvio Rodriguez » La familia, la propiedad privada y el amor (Tab)

La familia, la propiedad privada y el amor
Silvio Rodriguez

Letras, Acordes y Tabs para Guitarra, Bajo y Ukulele

  • Introduccion: Am-D-Am-D-Am-D-Am-D-Am
    (I)
         Am             D
     El derrumbe de un sueño
                   C
    algo hallado pasando
    F                 E
    resultabas ser tú.
           Am          D
    Una esponja sin dueño
                   C
    un silbido buscando
    F                E
    resultaba ser yo
    Am                      C
    Cuando se hallan dos balas
                          D   B7*
    sobre un campo de guerra
                   E
    algo debe ocurrir
    
  • Introducción: FA#m - SI (4 veces)
    
    
         FA#m             SI
     El derrumbe de un sueño
                   LA
    algo hallado pasando
    RE                DO#7
    resultabas ser tú.
           FA#m             SI
    Una esponja sin dueño
                   LA
    un silbido buscando
    RE                DO#7
    resultaba ser yo
    
    
    FA#m                      LA
    Cuando se hallan dos balas
                          SI
    
  •     F#m            B                 F#m
    e|---------------------------------------------------------||
    B|----------2-------4--------4---------2--------2----------||
    G|--2---------2-------4--------4---------2--------2--------||
    D|----4---------4-------4--------4---------4--------4------||
    A|----------------4-------2--------2---------4--------4----||
    E|--2-------2-------2--------2---------2--------2----------||
    
       B                F#m             B
    e|--------------------------------------------------------||
    B|-4-------4---------2-------2-------4-------4------------||
    G|---4-------4---------2-------2-------4-------4----------||
    D|-----4-------4---------4-------4-------4-------4--------||
    A|-------2-------2---------4-------4-------2-------2------||
    E|-2-------2---------2-------2-------2-------2------------||
    
      F#m               B                F#m
    e|--------------------------------------------------------||
    B|-4-------4--------4--------4--------2-------------------||
    G|---2-------2--------4--------4--------2-----------------||
    
  • +
    ¡Colabora con nosotros!
    Envíanos tu versión de esta canción

Letra de La familia, la propiedad privada y el amor
(I)
El derrumbe de un sueño
algo hallado pasando
resultabas ser tú.
Una esponja sin dueño
un silbido buscando
resultaba ser yo
Cuando se hallan dos balas
sobre un campo de guerra
algo debe ocurrir
que prediga el amor
de cabeza hacia el suelo
una nube vendrá
o estampidas de tiempo
los ojos tendran.
Fue preciso algo siempre
y no fue porque
Tu tenías lazos blancos en la piel
tú, tenías precio puesto desde ayer
tú, valías cuatro cuños de la ley
tú sentada sobre el miedo
sentada sobre el miedo
sentada sobre el miedo
de correr
(II)
Una buena muchacha de casa decente no puede salir
que diría la gente el domingo en la misa
si saben de ti
que dirían los amigos
los viejos vecinos
que vienen aquí
Qué dirían las ventanas,
tu madre y su hermana
y todos los siglos de colonialismo español
que no en valde te han hecho cobarde qué diría
Dios sin amas sin la Iglesia y sin la ley
Dios, a quien ya te entregaste en comunión
Dios, que hace eternas las almas de los niños
que destrozarán las bombas y el napalm
(esta parte va igual al II parrafo)
El derrumbe de un sueño
algo hallado pasando
resultaba ser yo
Una esponja sin dueño un silbido buscando
resultabas ser tú
Busca amor con anillos
y papeles firmados
y cuando dejes de amar
ten presentes los hijos
no dejes tu esposo
ni una buena casa
y si no se resisten
serruchen los bienes
que tienes derecho también
porque
tú tenías lazos blancos en la piel
tú, tenías precio puesto desde ayer
tú, valías cuatro cuños de la ley
tú sentada sobre el miedo de correr
Acoredes:




[La familia, la propiedad privada y el amor chords][La familia, la propiedad privada y el amor cifra]
© LaCuerda.net · aviso legal · privacidad · es · en · pt · contacto