Acordes de Guitarra » S »Silvio Rodriguez » Compañera (Tab)
  • Letra y Acordes
    Intro: LA - RE/FA#
    
             LA RE/FA#        LA  RE/FA#              LA
    A)La canción       es LA amiga       que me arropa
    
          RE/FA#        LA   RE/FA#         REm7 
    y después me desabriga;        la más clara y obscura,
    
            LAd       SId          LA
    la más verde y madura, la más íntima
    
        SOL          FA# (III-3_0 IV-4 III-0_3 II-0_2)
    la más indiscreta.
    
          SIm              FA#m  SIm                FA#m
    La canción me da todo,    aunque no me respeta:
    
             SIm     FA#m      (VI-5)  SIm   SI7
    se me entrega feliz      cuando me viola.
    
    
  • Letra y Acordes
    A - D/F#
    
            A  D/F#        A  D/F#          A         D/F#         A   D/F#
    La canción     es la amiga    que me arropa y después me desabriga;
            Dm7                    D#°       F#°
    la más clara y obscura, la más verde y madura,
           A          G        F#  (FA#-LA#-SOL-FA#-SOL-LA#-SI-DO#)
    la más íntima la más indiscreta.
           Bm        F#  Bm                F#
    La canción me da todo, aunque no me respeta:
             Bm     F#  (A7/Bb)    Bm
    se me entrega feliz cuando me viola.
    B7       A        E/G# F#m                 C#m
     La canción es la ola    que me eleva y me hunde,
             G       F#           Bm
    que me fragua lo mismo que me funde.
    Dm        A       B/A  Dm7            D4  E7(4t)       A  (intro) - D/F#
      La canción compañera,  virginal y ramera,    la canción.
    
          A   D/F#    A D/F#          A         D/F#           A  D/F#
    
  • Tablatura
    1|---------5---2----------------------------------------0---------
    2|--------5---------------(2/3/2)------0/2/0----0--------------3--
    3|-------6-------------2---------------2-----2-------2-------2---2
    4|------7-----------4---------------2---------------------0-------
    5|----------------5---------------0-------------------------------
    6|--4/5--------2-----------------------------------2--------------
    
    1|-----------------------------------------------------0----------
    2|-------0/2--3---------0----2-------0/2/0-----0------------------
    3|-----2---------2---2---------2-------------2------2-------------
    4|---2-------------4-------------2--------------------------------
    5|-0----------------------0----------0----------------------------
    6|------------2-----------------------------------2---------------
    
    
    A - D/F#
    
            A  D/F#        A  D/F#          A         D/F#         A   D/F#
    La canción     es la amiga    que me arropa y después me desabriga;
            Dm7                    D#°       F#°
    
  • +
    ¡Colabora con nosotros!
    Envíanos tu versión de esta canción

Letra de Compañera
y después me desabriga; la más clara y obscura,
la más verde y madura, la más íntima
la más indiscreta.
La canción me da todo, aunque no me respeta:
se me entrega feliz cuando me viola.
La canción es la ola que me eleva y me hunde,
que me fragua lo mismo que me funde.
La canción compañera, virginal y ramera, la canción.

A)Comenzamos un día por los tiempos de siempre y todavía;
comenzamos felices a juntar cicatrices, como buenas señales de los años,
y, peldaño a peldaño, levantamos paisaje sin excusa, sin ruego y sin ultraje.
¿Quién se atreve a decirme que debo arrepentirme de la esperma quemante
que me trajo? Porque sangra de abajo yo no vendo ni rajo mi pasión.

A)Entre drama y comedia he llegado trovando a la edad media; torpe, pero sincero,
aún no soy caballero (y que el cielo me libre de cordura). No me embriaga la
altura ni me aburren los sueños; no es por moda que estallo y que me empeño.
El amor sigue en brete y el camino a machete, más no lloro por tal ni me amilano,
si conservo mis manos, mi sudor y el humano corazón.

(Final: Intro)



© LaCuerda.net · aviso legal · privacidad · contacto