Acordes de Guitarra » S »Silvio Rodriguez » A donde van? (Tab)

A donde van?
Silvio Rodriguez

Letras, Acordes y Tabs para Guitarra, Bajo y Ukulele

  •                   RE9  SOL
    Adonde van las palabras 
                  RE RE9·RE4(I-2·0 II-3)
    que no se quedaron
                     RE9  SOL
    adonde van las miradas
                    RE
    que un día partieron
     MIm           LA
    acaso flotan eternas
      RE            (V-4)      SIm
    como prisioneras de un ventarrón
     (V-0)    SOL               LA
    o se acurrucan entre las rendijas
          RE(V-4) SIm(V-0)
    buscando calor.
     SOL                        LA
    Acaso ruedan entre los cristales
                   RE     (V-4)       SIm
    cual gotas de lluvia que quieren pasar
    
  • A                      D          E        A 
         A dónde van las palabras que no se quedaron
    A                      D            E      A 
         A dónde van las miradas que un día partieron
    Bm                E                 A                F#m
        Acaso flotan eternas como prisioneras de un ventarrón
            D                   E                 A 
    O se acurrucan entre las rendijas buscando calor
    Bm                             E                   A                    F#m
        Acaso ruedan entre los cristales cual gotas de lluvia que quieren pasar
          D                   E              A 
    Acaso nunca vuelven a ser algo, acaso se van
    D       A           D            A 
        Y a dónde van        a dónde van
    
    En que estarán convertidos mis viejos zapatos
    A dónde fueron a dar tantas hojas de un árbol
    Por dónde están las angustias que desde tus ojos rodaron por mí
    A dónde fueron mis palabras sucias de sangre de abril
    A dónde van ahora mismo estos cuerpos
    
  • e|---5-----5----5---5----------5-------------|---5-----5-----5---5----------5-------|
    B|-----5----------5----8/(7)-----7-----7-----|-----5-----------5----8/(7)-----7-----|
    G|-------7-------------------7-----------7---|-------7--------------------7-----7---|
    D|-------------------------------------------|-------------7~-----------------------|
    A|-------------------------------------------|--------------------------------------|
    D|---0~------0~--------0~-----------0~-------|---0~------0~---------0~--------------|
    
    
    e|----5/3------3----------------------|-----5------------3-------------------------|
    B|----------5----5---7----------------|---7-----7------5-----5---7-----------------|
    G|----------5--------7----------------|---7-----7------5-----5---7-----------------|
    D|------------------------------------|--------------------------------------------|
    A|------------------------------------|--------------------------------------------|
    D|-0~-------0~-------0~--0-0-0-0-0-0--|---0~----0~-----0~----0~--0~--0-0-0-0-0-0---|
    
    
    e|-----5------------3-------------------------|-----0-3---------------------------|
    B|---7-----7------5-----5---7-----------------|---1-----0-------------------------|
    G|---7-----7------5-----5---7-----------------|---2-----------2-------------------|
    D|--------------------------------------------|-----------------------------------|
    
  • +
    ¡Colabora con nosotros!
    Envíanos tu versión de esta canción

Letra de A donde van?
Adonde van las palabras
que no se quedaron
adonde van las miradas
que un día partieron
acaso flotan eternas
como prisioneras de un ventarrón
o se acurrucan entre las rendijas
RE(V-4) SIm(V-0)
buscando calor.
Acaso ruedan entre los cristales
cual gotas de lluvia que quieren pasar
acaso nunca vuelven a ser algo?
RE·RE·RE9·RE4(I-2·0 II-3)
acaso se van
RE·RE·RE9·RE4(I-2·0 II-3)
y adonde van
RE·RE·RE9·RE4(I-2·0 II-3)
adonde van?
En que estarán convertidos
mis viejos zapatos
adonde fueron a dar
tantas hojas de un árbol
por donde están las angustias
que desde tus ojos rodaron por mi
adonde fueron mis palabras sucias
de sangre de abril.
Adonde van ahora mismo estos cuerpos
que pueden nunca dejar de alumbrar
acaso nunca
vuelven a ser algo?
acaso se van
y adonde van
adonde van?
Adonde va lo común
lo de todos los días
el descalzarse en la puerta
adonde va la sorpresa
casi cotidiana del atardecer
adonde va el mantel de las mesa
el café de ayer.
Adonde van los pequeños
terribles encantos que tiene el hogar
acaso nunca vuelven a ser algo?
acaso se van
y adonde van
adonde van?




[A donde van? chords][A donde van? cifra]
© LaCuerda.net · aviso legal · privacidad · es · en · pt · contacto