Acordes de Guitarra » S »Signos Diferentes » Si supieras (Tab)

Si supieras
Signos Diferentes

Letras, Acordes y Tabs para Guitarra, Bajo y Ukulele

  • INTRO: Gm - C -Gm - F - C - Dm
    
    Dm            Gm           C
    No sé cómo decirte lo que siento,
            F         A#
    eres lo único que tengo
                    Gm               A                 Dm
    y en verdad me estas robando el sueño, pienso en ti.
    
                        Gm              C
    No se que me habrás hecho y ya no importa
              F                A#
    ahora te miro hasta en la sopa
                 Gm            A          Dm
    y en cada peluche en cada cosa estas ahí
    
           Gm                C
    Pero tengo miedo de robarte un beso
          F                  Dm
    pues todo me sale mal sin ti
    
  • SI            MI           LA
    No se como decirte lo que siento
            RE         SI
    eres lo unico que tengo 
                     MI 
    y en verdad me estas 
                LA            RE
    robano el sueño pienso en ti
    
    SI                  MI
    No se que me habras hecho
              LA
    y ya no importa ahora
       RE               SI
    te miro hasta en la sopa
                MI
    y en cada peluche en 
          LA          RE
    cada rosa estas aqui
    
    
  •               FA#m            SI 
    No se como decirte lo que siento,
            MI          DO#m
    eres lo único que tengo
                     FA#m             SI              DO#m
    y en verdad me estas robando el sueño, pienso en ti.
    
                         FA#m              SI 
    No se que me habrás hecho y ya no importa
              MI                DO#m
    ahora te miro hasta en la sopa
                 FA#m           SI          DO#m 
    y en cada peluche en cada rocé estas ahí  
    
    (estrofa B)
           LA             SI 
    Pero tengo miedo de robarte un beso 
          DO#m                 
    pues todo me sale mal sin ti 
           LA                SI 
    
  •                 FA#m                                       SI                                  E                DO#m
    e----9-------------------------------------------7------------------------------------------4----------------------
    B---10--------9------12-------------------------7--------------10---9-----7-----------5--------4--5---7----
    G---11--11------11-----11---------------8---------------------------------------------6------6--------------
    D---11-----11--------------------------9------------------------------------------------6---6------------------
    A---9---------------------------------9---------------------------7----7----7-----------4----------------------
    E-----------------------------------------------------------------------------------------------------------------
    
                 FA#m                   SOL#                            DO#m
    e----2-----------------------4-------------------------------------------
    B---2--2--2--4--5---------4----------------------4/5------------------
    G---2-----------------------5---5--6---8--------------6---------X8------
    D---4-----------------------6------------------------------6------------
    A---4-----------------------6---------------------4---------------------
    E----2----------------------4--------------------------------------------
    
    SOLO:
    
    e--------------------------------------------------------------------------------------------------------------------
    B-------------------------------------------------------------------------------------------------------------------
    
  • e-5--4-7-2--2~-2--5-4-2/0-0--------2-------------------------------------
    B----------4--4--------------2-4-5---2--2-2-4-5-4--1/2-4-4/5---4/5--4/5--
    G---------4--------------------------------------------------6*---6*---6*
    D------------------------------------------------------------------------
    A------------------------------------------------------------------------
    E------------------------------------------------------------------------
    
    (REPITE LA ULTIMA PARTE DEL PUNTEO HASTA QUE COMIENZE LA CANCION)
    (PUEDES HACERLO CON ARPEGIO O RASGEANDO SEGUN LA OCACION).. SUERTE ;)
    
    
                 FA#m         SI
    No se como decirte lo que siento
            MI        DO#m
    eres lo único que tengo
                     FA#m
    y en verdad me estas
                 SOL#          DO#m
    robando el sueño pienso en ti
    
    
  • +
    ¡Colabora con nosotros!
    Envíanos tu versión de esta canción

Letra de Si supieras
No se como decirte lo que siento
eres lo unico que tengo
y en verdad me estas
robano el sueño pienso en ti
No se que me habras hecho
y ya no importa ahora
te miro hasta en la sopa
y en cada peluche en
cada rosa estas aqui
pero tengo miedo de robarte
un beso pues todo
me sale mal sin ti
es que te quiero y
por ti me muero
siempre lo quise decir
si supiera que siempre
estoy pensano en ti
que mi corazon sin ti
no puede vivir
te me clavaste y
nadie te saca de aqui
no podras salir
Tiemblo tan solo al
tocarte las manos
y me derrito por
tus labios no pasa
un segundo y ya te extraño
por que a mi.
pero tengo miedo de robarte
un beso pues todo
me sale mal sin ti
es que te quiero y
por ti me muero
siempre lo quise decir
si supiera que siempre
estoy pensano en ti
que mi corazon sin ti
no puede vivir
te me clavaste y
nadie te saca de aqui
no podras salir
Se que talvez yo no
soy lo que quieres
pero debes saber que
yo vivo solo por ti.
pero tengo miedo de robarte
un beso pues todo
me sale mal sin ti
es que te quiero y
por ti me muero
siempre lo quise decir
si supiera que siempre
estoy pensano en ti
que mi corazon sin ti
no puede vivir
te me clavaste y
nadie te saca de aqui
no podras salir




[Si supieras chords][Si supieras cifra]
© LaCuerda.net · aviso legal · privacidad · es · en · pt · contacto