Acordes de Guitarra » S »Siete Lunas » Loco Corazón (Tab)

Loco Corazón
Siete Lunas

Letras, Notas, Punteos, Tablaturas y Acordes de Guitarra (Tabs & Chords)

  • Letra y Acordes
    E/---------------------------------------------------------
    A/---------------------------------------------------------
    D/-------------7-----7---6---5-----------------------------
    G/-----------7---5-----5---4---3---------------------------
     B/--6-5-6-5-----------------------3-2-3--5-6-8-6--5-3-5----
    E/---------------------------------------------------------
    
    SIGUE ASI!!!
    
    E/---------------------------------------------------------
    A/---------------------------------------------------------
    D/---------------------------------------------------------
    G/--------------6-7------------------14----14---13---12----
    B/--------6-5---------------------15----13----13---12- 11--
    E/--5-3--------------13-12-13-12---------------------------
    
    SIGUE ASI!!!
    
    E/---------------------------------------------------------
    A/---------------------------------------------------------
    
  • Tablatura
    -----------------------------------------------5-----------------
    -6-5-6-5-------------------3-2-3-5-6-8-6-5---5---8-6-5-----------
    ---------7---5---5---4---3-----------------7-----------6-7----x2-
    -----------7---7---6---5-----------------------------------------
    -----------------------------------------------------------------
    -----------------------------------------------------------------
    
    
    
    -13-12-13-12----------------------------10-9-10-12-13-15-13-12---
    -------------15----13----13----12----11------------------------15
    ----------------14----14----13----12-----------------------------
    -----------------------------------------------------------------
    -----------------------------------------------------------------
    -----------------------------------------------------------------
    
    
    
    -12--5-----------------------------------------------------------
    -------8-6-5-----------------------------------------------------
    
  • +
    ¡Colabora con nosotros!
    Envíanos tu versión de esta canción

Letra de Loco Corazón
SIGUE ASI!!!
SIGUE ASI!!!
EMPIEZA A CANTAR!!!!
ESTOY LOCO LOCO CORAZON
EMBRIAGADO ESTA DE TANTO AMARTE A TI
SUFRE SUFRE SUFRE DE PASION POR TI
Y SOLO LE DAS TANTA INFIDELIDAD…
ES UNA CONDENA TÚ AMOR
SOS INDIFERENTE CON MIS SENTIMIENTOS
ES UNA CONDENA TÚ AMOR
CUANDO CALLA TU RISA A LOS CUATRO VIENTOS…
CADA DIA QUE PASA YO SUEÑO CON TU AMOR
MARIPOSA HERMOSA VUELAS DE FLOR EN FLOR
AUNQUE YO NO QUIERA SIGO PENSANDO EN TI
ESTE FUE EL DESTINO QUISO QUE SEA ASI…
ES UNA CONDENA TÚ AMOR
SOS INDIFERENTE CON MIS SENTIMIENTOS
ES UNA CONDENA TÚ AMOR
CUANDO CALLA TU RISA A LOS CUATRO VIENTOS…
Y TERMINA HACIENDO LA INTRO!!!
LA CANCION ESTA PERFECTA!!!
ESPERO QUE LES SALGA!!!
ESTA CANCION VA SIN DEDICACION!!!
PORQUE YA SABE PARA QUIEN ES!!!
CCCHHHAAAUUU!!!!
SUERTEEEE!!!!
VAMOS MANTO NEGRO R’N’R
http://mantonegrorock.googlepages.com/home
http://fotolog.com/mantonegro
CCCHHHAAAUUU!!!

Videos de Loco Corazón
[ver más videos]



© LaCuerda.net · Aviso Legal · Privacidad