Acordes de Guitarra » S »Siembra » Señor de la esperanza (Tab)

Señor de la esperanza
Siembra

Letras, Acordes y Tabs para Guitarra, Bajo y Ukulele

  • E--------------------------------------------|
    B--------------------------------------------|
    G--------------------------------------------|
    D-9-7----------------------------------------|
    A-----10-9-7-5--5-5-5-5-3-2-3-2-----2-3-5-5--|
    E-------------------------------5-3----------|
    
    
    E---------------------------------------------------------|
    B---------------------------------------------------------|
    G---------------------------------------------------------|
    D-2-0h2h0-------------------------------------------------|
    A---------2-3-2---2-3-55--3-2-3-2-----2-3-55--3-2-3-2-----|
    E---------------2-----------------5-2-----------------5-3-|
    
    
    E--------------------------------------------------|
    B-----------------------------------------------8--|
    G---------------------------------------------7----|
    D---------2-2-2-2--2h0-----------------------------|
    
  • +
    ¡Colabora con nosotros!
    Envíanos tu versión de esta canción

Letra de Señor de la esperanza
Entre las casitas, de esteras y palos
en medio del polvo de nuestras calles vas caminando.
'Saludando a todos, nos llamas vecino
nos aprietas fuerte la mano y nos llevas contigo [BIS]
Vamos construyendo, un mundo distinto
vamos arrancando la piedra que hay en los corazones
'vamos conquistando nuestra libertad
con tu mano amiga señor de la esperanza [BIS]
Todas las mañanas, vamos al trabajo
y en medio de todos tu voz perdida llena el silencio
'cantas con nosotros, pidiendo justicia
levantando firme tu voz, nos llamas y nos animas (BIS)
Vamos construyendo, un mundo distinto
vamos arrancando la piedra que hay en los corazones
'vamos conquistando nuestra libertad
con tu mano amiga señor de la esperanza [BIS]
Al caer la tarde, juntos a la mesa
compartiendo el pan al calor del fuego de tu cariño
'padre de bondades, padre de ternuras
en tu seno acunas el rostro alegre de tus criaturas [BIS]
Vamos construyendo, un mundo distinto
vamos arrancando la piedra que hay en los corazones
'vamos conquistando nuestra libertad
con tu mano amiga señor de la esperanza [BIS]
FINAL
Espero les guste, atte Pedro Yalico pyarock@hotmail.com
esta cancion me la dedico a mi pues me gusta mucho su melodia y letra.




[Señor de la esperanza chords][Señor de la esperanza cifra]
© LaCuerda.net · aviso legal · privacidad · es · en · pt · contacto
DINAMICO