Acordes de Guitarra » S »Sergio Denis » Primer Amor (Tab)

Primer Amor
Sergio Denis

  • Letra y Acordes
    1|-10-10-10--10--10--9-9------|----------9-10-9-12-10---|
    2|----------------------10-12-|-12-12-12-------------10-|
    3|----------------------------|-------------------------|
    4|----------------------------|-------------------------|
    |                           G |                  A   D  |
    
    1|------------------------|---------------------------10||
    2|---------------12-12-10-|-12-10----------------12-10--||
    3|-11-11-11-12-12---------|------12--12-12-12-12--------||
    4|------------------------|-----------------------------||
    |                G    A   | G                       D   ||
    
    D   Dsus4
    Te Amé,
             D            Dsus5
    yo solo sé cuanto te amé
               Dsus4             D
    Desde el principio hasta el final
    D/F#     Dsus2        D    Dsus4  D
    Yo solo sé cuanto te amé
    
  • +
    ¡Colabora con nosotros!
    Envíanos tu versión de esta canción

Letra de Primer Amor
yo solo sé cuanto te amé
Desde el principio hasta el final
Yo solo sé cuanto te amé
Cuando te ví me enamoré
Cómo esperaba despertar
Para poder volverte a ver
Cómo sufría ese temor
De imaginar, de no saber
Si me querías de verdad
O me dejabas de querer
Y nuestra calle y ese sol
Y los recreos sin hablar
Y las caricias en secreto
Y mi pudor tu ingenuidad
No sé si hicimos el amor
O si el amor nos hizo amar
Con miedo la primera tarde
Aquella vez en el trigal
Nadie creyó cuanto te amé
Dónde estarás, cómo estarás
A quién decir que fue verdad
Juré que siempre te iba a amar
Y lo juraste como yo
Quién sabe si te acordarás
A veces pienso que te amé
Cómo jamás podria amar
Lo juraste como yo
Quién sabe si te acordarás
Y nuestra calle y ese sol
Y los recreos sin hablar
Y las caricias en secreto
Y mi pudor tu ingenuidad
No sé si hicimos el amor
O si el amor nos hizo amar
Con miedo la primera tarde
Aquella vez en el trigal
Toda la luz del universo para Sergio, vamos maestro vos podés!!!
Dudas, sugerencias: FB: Juani Brachetti



© LaCuerda.net · aviso legal · privacidad · contacto