Acordes de Guitarra » S »Seguimos perdiendo » Un puño de tierra (Tab)

Un puño de tierra
Seguimos perdiendo

  • Letra y Acordes
    C5 F5 A5 G5
    C5 F5 G5 F5 C5
    
    
    C5
    Vagando paso la vida
    A5    G5            C5
    nomas recorriendo el mundo
    C5
    si quieren que se los diga
    A5        G5          C5
    yo soy un alma sin dueño
    
    
    F5               G5
    a mi no me falta nada
    C5  /    B5    /   A5
    la vida para mi es sueño
    F5                  G5
    yo se que la vida es corta
    
  • Letra y Acordes
    ---------------5---------------------
    -----------------------8---6---------
    ----5-5-5-5------------------5-------
    -------------------------------------
    -------------------------------------
    -------------------------------------
    
    ---------------5----------------------
    --------------------8---6---8--6------
    ---5-5-5-5----------------------------
    --------------------------------------
    --------------------------------------
    --------------------------------------
    
    
    ---------------5----------I----5555------7--------
    -------6666------8--------I--------------------8--
    --------------------------I-----------------------
    --------------------------I-----------------------
    --------------------------I-----------------------
    
  • +
    ¡Colabora con nosotros!
    Envíanos tu versión de esta canción

Letra de Un puño de tierra
luego se repite el primero y empieza la rola
Vagando paso la vida
nomas recoriendo el mundo
si quieren que se los diga
yo soy un alma sin dueno
a mi no me falta nada
la vida para mi es sueño
yo se que la vida es corta
al fin que tambien la debo
(se repite lo enterior los tiempos lo marca al voz ok)
yo tomo cuando yo quiero
no miento soy muy sincero
y soy como las gaviotas
ke vuelan de puerto en puerto
a mi no me falta nada
la vida para mi es sueño
yo se que la vida es corta
al fin que tambien la debo
el dia que yo me muera
no voy a llevarme nada
hay ke darle gusto al gusto
la vida pronto se acaba
lo que paso en este mundo
nomas el recuerdo quedan
ya muerto voy a llevarme
nomas un puño de tierra
Aki esta, este cover de estos brothers que la neta se rifan en lo que
hacen, ya saben cualkier duda a raul_k@hotmail.com



© LaCuerda.net · aviso legal · privacidad · contacto
DINAMICO