Acordes de Guitarra » S »Seguimos perdiendo » Nos unió el alcohol (Tab)

Nos unió el alcohol
Seguimos perdiendo

  • Tablatura
    e----------------------
    B----------------------
    G----------------------
    D-55-33-22-00----------
    A-------------3--------
    E----------------------
    
    e----------------------
    B----------------------
    G----------------------
    D-55-33-22-00-2--------
    A----------------------
    E----------------------
    
    e----------------------
    B----------------------
    G----------------------
    D-55-33-22-00-3--------
    A----------------------
    E----------------------
    
  • +
    ¡Colabora con nosotros!
    Envíanos tu versión de esta canción

Letra de Nos unió el alcohol
fue en un bar donde te conoci
en ese hotel del centro yo me enamore de ti
fue en un bar donde te conoci
en ese hotel del centro me enamore de ti
komo alguien komo yoOOOO
komo alguien komo voOOOOOOs
es ke nos unio el alcohol
a mi no.
AKI SE REPITE EL MISMO CIRCULO
me acerke a doble A asisti
y nada me ayudaron sigo sin saber de ti
ya buske a una anexo fui
y nada me a ayudado
voy a seguir sin ti
komo alguien komo yo
komo alguien komo vos
es ke nos unio el alcohol
a mi no!
TERMONA EN Cm.



© LaCuerda.net · aviso legal · privacidad · contacto
DINAMICO