Acordes de Guitarra » S »La Secta » Asesino (Tab)

Asesino
La Secta

Letras, Notas, Punteos, Tablaturas y Acordes de Guitarra (Tabs & Chords)

  • Letra y Acordes
     LA, SI 
    (las notas del intro siguen hasta el coro)
     LA                  SI        
    y si el dia te ha ido mal
    LA                  SI 
    muchas millas para llegar
    LA
    y si el rio esta crecido y 
                 SI 
    la corriente te puede llevar
    LA
    y no salen las palabras de tu boca
                        SI 
    como quisiera escuchar
    
    *coro*
    MI 
    y entre los dos 
    DO#  
    palabras de amor 
    
  • Tab p/Bajo
    Intro y verso
    'y si el dia te ha ido mal...'
    g--------------------------------|
    d--------------------------------|
    a--------------------------------|
    e--5--5h7--7h5--5h7--7h5--5h777--|
    
    Coro
    'si algo se rompio...'
    g------------------------------------------------------------------------|
    d------------------------------------------------------------------------|
    a------------------4-4-4-4-4-4-4/2--0-0-0-0-0-0-0-0----------------------|
    e-0-0-0-0-0-0-0-0------------------------------------0-5h6h7-0-0-0-0-0-0-|
    
    Puente
    'no quiero ser,ya no quiero ser...'
    g-------------------------------|
    d-------------------------------|
    a--2h44444--2h44444-------------|
    e--------------------2--2-2-2-5~|
    
    escuchen el cd para saber como entrar en el verso
  • +
    ¡Colabora con nosotros!
    Envíanos tu versión de esta canción

Letra de Asesino
(las notas del intro siguen hasta el coro)
y si el dia te ha ido mal
muchas millas para llegar
y si el rio esta crecido y
la corriente te puede llevar
y no salen las palabras de tu boca
como quisiera escuchar
y entre los dos
palabras de amor
confundes la sangre con el vino
si algo se rompio
en tu corazon
no quiero ser yo el asesino
no quiero ser yo el asesino
verso 2 es lo mismo que el primer verso
paloma no puedes volar
quiero tus alas reparar
se han confundido los sueños con las cosas
que me pasan de verdad
y el secreto de tus besos
que me matan y no puedo decifrar.
ahora viene la parte de
no quiero ser, yo no quiero ser
(se repite varia veces y se cae al coro)
y se repite la parte de no quiero ser yo no quiero ser...
y llegas al final que termina en mi+
ahi una lead guitar en la parte de 'no quiero ser yo no qiero ser' que
no l he sacad aun pero sto esta bastante completo
correcciones o comentarios escriban a mi e-mail.

Videos de Asesino
[ver más videos]

[ver todas las canciones]


© LaCuerda.net · Aviso Legal · Privacidad