Acordes de Guitarra » S »Sau » Boig per tu (Tab)

Boig per tu
Sau

Letras, Acordes y Tabs para Guitarra, Bajo y Ukulele

  •      F        Bb                    F        Bb
    e||------5---------5-6-5----------------5---------5-6-5--------|
    B||----6---6-----6-------6---6--------6---6-----6-------6---6--|
    G||--5-------5-7-----------5--------5-------5-7-----------5----|
    D||------------------------------------------------------------|
    A||------------------------------------------------------------|
    E||------------------------------------------------------------|
    
        F        Bb                    F        Bb
    e|------5---------5-6-5----------------5---------5-6-5--------||
    B|----6---6-----6-------6---6--------6---6-----6-------6---6--||
    G|--5-------5-7-----------5--------5-------5-7-----------5----||
    D|------------------------------------------------------------||
    A|------------------------------------------------------------||
    E|------------------------------------------------------------||
    
    F              Bb
    En la terra humida escric
    F           Bb
    nena estic boig per tu
    
  • SOL              DO
    En la terra humida escric
    SOL          DO      LAm
    nena estic boig per tu
                  DO
    em passo els dies
         FA   DO RE
    esperant la nit.
    
    SOL        DO
    Com et puc estimar
    SOL           DO      LAm
    si de mi estàs tan lluny
               DO
    servil i acabat
              SOL
    boig per tu
    
    TORNADA:
    RE                    MIm
    
  •      FA       SIb                   FA       SIb
    e||------5---------5-6-5----------------5---------5-6-5--------|
    B||----6---6-----6-------6---6--------6---6-----6-------6---6--|
    G||--5-------5-7-----------5--------5-------5-7-----------5----|
    D||------------------------------------------------------------|
    A||------------------------------------------------------------|
    E||------------------------------------------------------------|
    
        FA       SIb                   FA       SIb
    e|------5---------5-6-5----------------5---------5-6-5--------||
    B|----6---6-----6-------6---6--------6---6-----6-------6---6--||
    G|--5-------5-7-----------5--------5-------5-7-----------5----||
    D|------------------------------------------------------------||
    A|------------------------------------------------------------||
    E|------------------------------------------------------------||
    
    FA             SIb
    En la terra humida escric
    FA           SIb
    Nena estic boig per tu
    
  • 
    
        F              Bb
        En la terra humida escric 
    
    G|------------------------------------
    D|------------------------------------
    A|---------0---1------1--1-1h3--------
    E|--1--3-------------------------1----
    
    
        F           Bb
        nena estic boig per tu
    
    G|-----------------------------------
    D|-----------------------------------
    A|-----------0---1-------------------
    E|-1--3----------------------3--1----
       Gm            Bb
       em passo els dies
     
    G|------------------------------------
    D|------------------------------------
    A|---------------1--------------------
    E|------3-----------------------------
    
          G    F  C
      esperant la nit.
    
    G|------------------------------------
    D|------------------------------------
    A|-0-----------3-------1--------------
    E|----3----1------1h3----3---1--------
    
    
    *lo mismo pero diferente estrofa
    
    
    Com et puc estimar                                             
    si de mi estàs tan lluny                            
  • +
    ¡Colabora con nosotros!
    Envíanos tu versión de esta canción

Letra de Boig per tu
En la terra humida escric
nena estic boig per tu
em passo els dies
esperant la nit.
Com et puc estimar
si de mi estàs tan lluny
servil i acabat
boig per tu
Sé molt bé que des d'aquest bar
jo no puc arribar on ets tu
però dins la meva copa veig
reflexada la teva llum
me la beuré
servil i acabat
boig per tu
Quan no siguis al matí
les llàgrimes es perdran
entre la pluja
que caurà avui.
Em quedaré atrapat
hebri d'aquesta llum
servil i acabat
boig per tu.
Sé molt bé que des d'aquest bar
jo no puc arribar on ets tu
però dins la meva copa veig
reflexada la teva llum
me la beuré
servil i acabat
boig per tu
servil i acabat
boig per tu
Sé molt bé que des d'aquest bar
jo no puc arribar on ets tu
però dins la meva copa veig
reflexada la teva llum
me la beuré
servil i acabat
boig per tu
servil i acabat
boig per tu




[Boig per tu chords][Boig per tu cifra]
© LaCuerda.net · aviso legal · privacidad · es · en · pt · contacto
DINAMICO