Acordes de Guitarra » S »Santiago del nuevo extremo » A mi ciudad (Tab)

A mi ciudad
Santiago del nuevo extremo

Letras, Acordes y Tabs para Guitarra, Bajo y Ukulele

  •       MI
    A)  Quién me ayudaría
          FA#m
         a desarmar mi historia antigua
          FA#m                           SOL#m
         y a pedazos volverte a conquistar
                 DO#m
         una ciudad quiero tener 
                FA#m
         para todos construída
                                               LA  SI7
         y que alimente a quien la quiera habitar
    
    
             DO#m                             FA#m
    B)  Santiago, no has querido ser el cerro
                   SOL#m           DO#m
         y tú nunca has conocido el mar
                                      SOL#m
         cómo estarán ahora tus calles
    
  • E-0-----0-----0-----0---------|
    B---0-0---0-0---3-3---3-3-----|
    G--2-2-2-2-2-2-2-2-2-2-2-2----|
    D-----------------------------|
    A-0-----0-----0-----0---------|
    E-----------------------------|
    
    Intro 2:
      A6          A6/         Bm              B#m          Fm
    E-0-----0-----0-----0------2------2------4------4------2------2------|
    B---0-0---0-0---3-3---3-3----3-3----3-3----5-5----5-5----2-2----2-2--|
    G--2-2-2-2-2-2-2-2-2-2-2-2--4-4-4--4-4-4--6-6-6--6-6-6--2-2-2--2-2-2-|
    D--------------------------------------------------------------------|
    A-0-----0-----0-----0------2------2------4------4--------------------|
    E------------------------------------------------------2------2------|
      Bm                          E4     E      E4
    E-2------2------2------2------0------0------0------0-|
    B---3-3----3-3----3-3----3-3----0-0----0-0----0-0----|
    G--4-4-4--4-4-4--4-4-4--4-4-4--2-2-2--1-1-1--2-2-2---|
    D----------------------------------------------------|
    
  • A mi Ciudad
    Conjunto Instrumental
    Arreglos: Sergio Bugueño Pizarro
    
    Intro
     A6   A/D    Bm   C#m   F#m       Bm        E E4 E E4
    G----------------------------------------------------------|
    D--------0-0---------------------------------0--2----------|
    A-0--0--2-2--2--2--4--4---0-4-0-4--2--2--2--4-----2--0-----|
    E---0--0-------2--2--4-4-2---2-------2--2--------------0---|
    
    1ª Estrofa
      A6    Bm     C#m    F#m        Bm               E E4 E E4
    G------------------------------------------------------------|
    D---------------------------------0-4--0-4--0-4--0-4--2------|
    A-0--0--2-2-2-2-4-4----0-4--0-4--2----2----2----2-------2-0--|
    E---0--0-2-2-2-2-4-4--2----2--------------------------------0|
    
    Coro
      A         Bm         C#m     F#m                C#m    Bm
    G-----------------------1---1-----------------------1--1------------|
    D----2----2--0-4--0-4--2---2-----------------------2--2---0-4--0-4--|
    A-0-4--0-4--2----2----4---4----0-4--0-4--0-4--0-4-4--4---2----2-----|
    E-------------------------
  • +
    ¡Colabora con nosotros!
    Envíanos tu versión de esta canción

Letra de A mi ciudad
A) Quién me ayudaría
a desarmar mi historia antigua
y a pedazos volverte a conquistar
una ciudad quiero tener
para todos construída
y que alimente a quien la quiera habitar
B) Santiago, no has querido ser el cerro
y tú nunca has conocido el mar
cómo estarán ahora tus calles
si te robaron tus noches
el sol de primavera
a mi ventana me fueron a avisar
anda, toma tu guitarra
tu voz será de todos los que un día
tuvieron algo que contar
A) Golpearé mil puertas
preguntando por tus días
si responden aprenderé a cantar
recorreremos tu alegría
desde el cerro a tus mejillas
y de ahí saldrá un beso a mi ciudad
B) Santiago, quiero verte enamorado
y a tu habitante mostrarse sin temor
en tus calles sentirás mi paso firme
y sabré de quién respira a mi lado
D) Canta, es mejor si vienes
tu voz hace falta
quiero verte en mi ciudad




[A mi ciudad chords][A mi ciudad cifra]
© LaCuerda.net · aviso legal · privacidad · es · en · pt · contacto