Acordes de Guitarra » S »Santiago Cruz » Y si te quedas qué? (Tab)

Y si te quedas qué?
Santiago Cruz

Letras, Acordes y Tabs para Guitarra, Bajo y Ukulele

  •                                                                       Dm6
    
    E||--------------3-----2------------1-------------------------------||-X-||
    A||-0-----------------------------------------4------4/5----------5-||-5-||
    D||-------------------2---------------2-0/1/0---2--------2-3-----3--||-7-||
    G||---2-4-------2---4---2-4----------------------------------2--4---||-4-||
    B||-2-----2-3/2---5---------2-3/2-----------------3-5----------5----||-6-||
    e||-------------------------------5---------------------------------||-X-||
    
    
    
    
    
                 Asus2                                                   Bm7
    Sé que estas cansada que has tenido un día largo y quieres apagar el mundo
                   E                                     Asus2
    Sé que todo el día he contado las horas para tenerte cerca
                     F#7                                  Bm7
    Sé que a veces piensas que has equivocado pasos en tu vida
                   Dsus2               Dm6                Asus2
    
  • A
    Sé que estas cansada que has tenido un día largo
               Bm
    y quieres apagar el mundo.
    
    E
    Sé que todo el día he contado las horas
                 A
    para tenerte cerca.
    
    A
    Sé que a veces piensas
             F7
    que has equivocado
                 Bm
    pasos en tu vida.
    
    
               D
    Sé que a veces pienso que si no te tengo
    
  • E||------------------------------------||
    B||----2-2h3p2------0-0-----2-2h3p2-2/5||
    G||---2--------2-----2-----2-----------||    Esus4  E
    D||--2------------2-------2------------||
    A||-0---------------0----0-------------||
    E||------------------------------------||
    
    
                 Asus2                                                   Bm7
    Sé que estas cansada que has tenido un día largo y quieres apagar el mundo
                   Esus4            E                      Asus2
    Sé que todo el día he contado las horas para tenerte cerca
                                        F#7               Bm7
    Sé que a veces piensas que has equivocado pasos en tu vida
                    Dsus2  D           Dm6                Asus2
    Sé que a veces pienso que si no te tengo para que más pasos
           G                  Bm7                    Esus4            E7  E6
    Sé que quiero que seas lo primero que vea cuando abra mis ojos
    
    
    
  •    Dsus2       Dm7       Esus4
    
    Introducción: Asus2 - Asus2 - Dsus2 - Dm7 - Dsus2 - Dm7
    
    
                     Asus2
    Sé que estás cansada
    
    que has tenido un día largo
                         Bm7
    y quieres apagar el mundo.
                   Esus4
    Sé que todo el día
                        E
    he contado las horas
                     Asus2
    para tenerte cerca.
    
    Sé que a veces piensas
                  F#
    
  • E||----------------------------------||
    B||----2-2-3-2------0-0-----2-2-3-2-5||
    G||---2--------2-----2-----2---------||
    D||--2------------2-------2----------||
    A||-0---------------0----0-----------||
    E||----------------------------------||
    
    Y si te quedas que?
    Santiago cruz
    
                    A9                                       F#m      Bm7
    Sé que estas cansada que has tenido un día largo y quieres apagar el mundo
                   E4                  E                 A9
    Sé que todo el día he contado las horas para tenerte cerca
                                         F#7              Bm7
    Sé que a veces piensas que has equivocado pasos en tu vida
                     D                Dm                  A9
    Sé que a veces pienso que si no te tengo para que más pasos
              G               Bm7                  E4           E
    Sé que quiero que seas lo primero que vea cuando abra mis ojos
    
  • E||---------------------------||
    B||-------14-15-14------------||
    G||-14-16----------14---------||
    D||---------------------------||
    A||---------------------------||
    E||---------------------------||
    GUITARRA
    E||---------------------0-----||
    B||-----------------------0---||
    G||-------------------2-----2-||
    D||---------------------------||
    A||-------------------0-------||
    E||---------------------------||
    
    
    PIANO
    E||----------------17--------------12-----------------12-------17-||
    B||-------14-15-14--------------12-10---------9-10-12----12----15-||
    G||-14-16--------------------------------9-11------------------14-||
    D||------------------------------------------------------------16-||
    
  • +
    ¡Colabora con nosotros!
    Envíanos tu versión de esta canción

Letra de Y si te quedas qué?
Sé que estas cansada que has tenido un día largo y quieres apagar el mundo
Sé que todo el día he contado las horas para tenerte cerca
Sé que a veces piensas que has equivocado pasos en tu vida
Sé que a veces pienso que si no te tengo para que más pasos
Sé que quiero que seas lo primero que vea cuando abra mis ojos
Y si te quedas esta noche y si me abrazas en la cama
y si encaramos por fin tantas ganas
de ser los testigos de nuestras mañanas
Yo por mi parte estoy dispuesto a desnudarte el pensamiento
a ser colono de cada rincón ser tu roca y tu bien, tu final y comienzo
Y si te quedas esta noche
y si te quedas qué?
Cuando cruces la puerta deja atrás tus dudas y tus remordimientos
Para que pensar si somos el capricho de lo que sentimos
Cuando te despiertes y me veas sonriendo va a tener sentido
Todo el tiempo ido que he desperdiciado antes de estar contigo
Y si te quedas esta noche y si me abrazas en la cama
y si encaramos por fin tantas ganas
de ser los testigos de nuestras mañanas
Yo por mi parte estoy dispuesto a desnudarte el pensamiento
a ser colono de cada rincón ser tu roca y tu bien, tu final y comienzo
Y si te quedas esta noche
y si te quedas qué?
y si te exploro qué?
y si te entiendo qué?
y si te siento qué?
Y si te quedas esta noche y si me abrazas en la cama
y si encaramos por fin tantas ganas
de ser los testigos de nuestras mañanas
Yo por mi parte estoy dispuesto a desnudarte el pensamiento
a ser colono de cada rincón ser tu roca y tu bien, tu final y comienzo
Y si te quedas esta noche
FINAL
y si te quedas qué?
y si te quedas que
y si te quedas qué?




[Y si te quedas qué? chords][Y si te quedas qué? cifra]
© LaCuerda.net · aviso legal · privacidad · es · en · pt · contacto