Acordes de Guitarra » S »Sandro » Así (Tab)

Así
Sandro

Letras, Notas, Punteos, Tablaturas y Acordes de Guitarra (Tabs & Chords)

  • Letra y Acordes
    MIm MIm/RE# MIm/RE MIm/DO#        SI7
    Así como una rosa desecha por el viento
    LAm LAm/SOL# LAm/SOL SIm      MIm
    Así como una hoja reseca por el sol
    MI7                                    LAm
    Así como se arroja de costado un papel viejo
          MIm     FA#7      SI7
    Así mi alma tu imagen arrojó.
    
    MIm MIm/RE# MIm/RE MIm/DO#        SI7
    Así como se marcha la noche con el día
    LAm LAm/SOL# LAm/SOL SI7           MIm
    Así como se aleja un velero hacia altamar
    MI7                                    LAm
    Así como se escapa el agua entre los dedos
     MIm        SI7        MIm
    Así te dejé ir sin meditar
    
    MI7  LAm              RE7                      SOL
    Mas hoy que estoy tan solo y tan cansado de llorar
    
  • Letra y Acordes
    Em
    Así, como una rosa
                      Am
    deshecha por el viento.
      D
    Así, como una hoja
                   G
    reseca por el sol.
      E
    Así, como se arroja de costado
              Am
    un papel viejo.
            Em        Am       B7
    Así, mi alma tu imagen arrojó.
    
    
    Así, como se marcha
    la noche con el día
    Así, como se aleja
    un velero hacia alta mar
    
  • Tablatura
    E:----------------------------------2---------2--------------------
    
        Así             Como una hoja reseca por el sol
    e:--------5-------4-------3-------2-------3-------3----------------
    b:------5-------5-------5-------4-------5-------5------------------
    g:----5-------5-------5-------4-------4-------4--------------------
    d:-----------------------------------------------------------------
    a:-----------------------------------------------------------------
    E:--5-------4-------3-------2-------0-------0----------------------
    
        Así             Como se arroja de costado un papel viejo
    e:--------4-------4-------7-------7--------8--------8--------------
    b:------5-------5-------9-------9-------10-------10----------------
    g:----4-------4-------9-------7-------9--------9-------------------
    d:------------------0-------6--------------------------------------
    a:----------------------------------0--------0---------------------
    E:--4-------0------------------------------------------------------
    
       Así mi alma tu imagen arrojó
    e:--------7-------7------------------------------------------------
    
  • +
    ¡Colabora con nosotros!
    Envíanos tu versión de esta canción

Letra de Así
Así, como una rosa
deshecha por el viento.
Así, como una hoja
reseca por el sol.
Así, como se arroja de costado
un papel viejo.
Así, mi alma tu imagen arrojó.
Así, como se marcha
la noche con el día
Así, como se aleja
un velero hacia alta mar
Así, como se escapa el agua
entre los dedos
Así, te deje ir sin meditar
Mas hoy, que estoy tan solo
y tan cansado de llorar
Quiero saber si tu querrías regresar
junto a mi lado para amarnos otra vez.
Tal vez estés pensando
que no quiera ya de ti
Que ese calor que alguna vez yo te pedí
Y que después abandoné.
Así, así

Videos de Así
[ver más videos]

[ver todas las canciones]


© LaCuerda.net · Aviso Legal · Privacidad