Acordes de Guitarra » S »San Alejo » Barman (Tab)

Barman
San Alejo

Letras, Acordes y Tabs para Guitarra, Bajo y Ukulele

  • INTRO:   C  G  Am  F  C  G  Am  F
    
    C                    G               Am                  F               C
    barman ni una copa mas la misma cancion y no me hable mas que voy a vomitar
                   G             Am            F
    es la enesima vez que oigo decir pobre borrachin andate a dormir.
    
    C  G  Am  F
    
    C                G                   Am                   F           C
    yo no puedo aceptar el problema que hay entre el trago y yo por una mujer
                     G            Am                    F
    que no es la mejor, y me cautivo quien sabe con que, intriga hasta hoy.
    
    C  G  Am  F
    C  G  Am  F
    
    C              G                       Am
    ya no siento ganas ya no quiero mas alcohol
                 F
    
  • e-10-8-8-12-13-12-10------8----8------------8----8~--8-12-10-8-8-10-8-
    b--------------------8-10---10---10~---8-10---10----------------------
    g---------------------------------------------------------------------
    D---------------------------------------------------------------------
    A---------------------------------------------------------------------
    E---------------------------------------------------------------------
    
    
    e-8-12-13-12-10------8----10B----12-10-8-8-10-8------
    b---------------8-10---10----------------------------
    g----------------------------------------------------
    D----------------------------------------------------
    A----------------------------------------------------
    E----------------------------------------------------
    
    //escuchen con atencion el principio de la cancion
    y guiense con este tab para obtener un 100x100to de
    exactitud//
    
    Notaaaaa...
    
  • C - G - Am - (F - G) x2
    
    
    (2)
    
    C                    G
    barman ni una copa mas
                  Am                 (F  G)
    la misma cancion y no me hable mas que voy a vomitar
    C                G
    Es!, la enesima vez                         Intro
                Am               (F   G)        C - G - Am - (F - G)
    Que oigo decir pobre borrachin, andate a dormir.
    
    
    
    Yo!, no puedo aceptar
    El problema que hay, entre el trago y yo por una mujer
    Que!, no es la mejor, que me cautivo quien sabe con que,
                    Intro
    
  • HOL@!!!!!
    
    aqui llegue otra vez con una cancion pa' gozar
    ahi les va:
    
    *RIFF 1
    
    G-------------------------------------|-----------------------|
    D-------------------------------------|5-3-2-0----------------|
    A--3--3--3--3-------------------------|--------3-3-------2-3--|
    E--------------3--3--3--3--5--5--5--5-|------------1-3-5------|
    
    G-----------------------------------------------|
    D-----------------------------------------------|
    A--3--3--3--------------------------------------| x 2
    E-----------3--3--3--3--5--5--5--5--1--1--3--3--|
    
    
    "este primer Riff se utiliza para el 1er intro y la 1a estrofa"
    
    Luego Va:
    
    *RIFF 2
    
    G-------------------------------------|-----------------------|
    D-------------------------------------|5-3-2-0----------------|
    A--3--3--3--3-------------------------|--------3-3-------2-3--|
    E--------------3--3--3--3--5--5--5--5-|------------1-3-5------|
    
    aqui se repite asi:
    
    *RIFF 1 x 1
    *RIFF 2 x 1
    
    y despues entra con energia:
    
    
    *RIFF 3
    
    G----------------------------
  • +
    ¡Colabora con nosotros!
    Envíanos tu versión de esta canción

Letra de Barman
barman ni una copa mas la misma cancion y no me hable mas que voy a vomitar
es la enesima vez que oigo decir pobre borrachin andate a dormir.
yo no puedo aceptar el problema que hay entre el trago y yo por una mujer
que no es la mejor, y me cautivo quien sabe con que, intriga hasta hoy.
ya no siento ganas ya no quiero mas alcohol
ya me da lo mismo que estes aqui o no
ya no siento ganas ya no quiero compación,
ya me da lo mismo este juego termino.
yo que era el mejor haciendo el amor y me lo crei machito cabron,
yo soy el cachon el rey de este bar que vive de mi, es todo por hoy.
ya no siento ganas ya no qiero mas alcohol,
ya me da lo mismo que estes aqui o no
ya no siento ganas ya no quiero compación,
ya me da lo mismo este juego termino.
barman ni una copa mas la misma cancion y no me hable mas que voy a vomitar
es la enesima vez que oigo decir pobre borrachin andate a dormir.




[Barman chords][Barman cifra]
© LaCuerda.net · aviso legal · privacidad · es · en · pt · contacto