Acordes de Guitarra » S »Samuel Hernandez » De lo más profundo (Tab)

De lo más profundo
Samuel Hernandez

Letras, Acordes y Tabs para Guitarra, Bajo y Ukulele

  • Intro: // G  D  C  D  Em  D  G /
    
       G      D     C        D      Em    D
    E--------------------------------------------
    B--------------------------------------------
    G-------4-7--7--5--4-5-4--------4-7-4--------
    D--5--5------------------7--5-7-------7-9-7--
    A--------------------------------------------
    E--------------------------------------------
    
       G      D     C        D      Em    D          G
    E--------------------------------------------------
    B--------------------------------------------------
    G-------4-7--7--5--4-5-4--------4-7-4--------------
    D--5--5------------------7--5-7-------7-9-7--5-4-5-
    A--------------------------------------------------
    E--------------------------------------------------
    
      G                             D                 C-D
    //De lo mas profundo de mi corazón nace esta canción
    
  • +
    ¡Colabora con nosotros!
    Envíanos tu versión de esta canción

Letra de De lo más profundo
//De lo mas profundo de mi corazón nace esta canción
para adorar tu nombre...
de lo mas profundo de mi corazón nace esta canción
para que sepan los hombres...
que tu eres parte de mi que eres real
porque te siento al pasar de las horas
porque comienzo a temblar si me tocas
se que estás aquí, se que estás aquíii...
en la alabanza de tu pueblo se te puede oir...
en la alabanza de tu pueblo se te puede oir...//
cuando el pueblo le adora
suceden cosas, hay sanidad, liberación
desciende el poder de Dios....
// y de lo más profundo nace esta cancion,
y de lo mas profundo esta adoracion...//
De lo mas profundo de mi corazón.




[De lo más profundo chords][De lo más profundo cifra]
© LaCuerda.net · aviso legal · privacidad · es · en · pt · contacto
DINAMICO