Acordes de Guitarra » R »Los Rumberos de Massachusetts » Ninguna (Tab)

Ninguna
Los Rumberos de Massachusetts

Letras, Acordes y Tabs para Guitarra, Bajo y Ukulele

  • e|--0-----0--------0--|---1-----1-------0--|
    B|-----1--------1-----|------1--------1----|
    G|-----------2--------|------------2-------|
    D|--------------------|---0----------------|
    A|--0-----------------|--------------------|
    E|--------------------|--------------------|
    
                            C              E
    
    e|-1-----1--------1--|-----------------|---0--|
    B|----0--------1-----|-----------1-----|---0--|
    G|-0--------2--------|-------0------0--|---1--|
    D|-------------------|----2------------|---2--|
    A|-------------------|--3--------------|---2--|
    E|-------------------|-----------------|---0--|
    
    
    [Strophe 1]
                         Am
    Entre tu boca y mi boca
    
  • +
    ¡Colabora con nosotros!
    Envíanos tu versión de esta canción
  • Tutorial
    HD
    Como Tocar Ninguna Los Rumberos de Massachussets
    6:58

Letra de Ninguna
[Strophe 1]
Entre tu boca y mi boca
Existe un mar de cosas
que olvidamos decirnos ayer
Cuando te fuiste con el atardecer
En un viejo tren sin frenos
Que partió a mil por hora
Y que de carga se lleva con el
mi beso en tu boca
[Strophe 2]
En un vagón te llevaste
mi infancia infinita
Y sin duda le pusiste llave
al cajón de mis cosas bonitas
Yo no pretendo pararte
Ese tren ya ha partido
Y a toda marcha decides dejarme
en la estación del olvido
[Prechorus 1]
Ay ay ay ay
Como me duele
Que te hayas ido
Ay ay ay ay
[Chorus]
Pero jamás olvidaré
Que fuiste lo único que ame
Que cada noche te acusaba con la luna
Y yo te culpo porque soy
un hombre débil sin control
Cuando combino rumba y tu cintura
Y te repito, como tu ninguna
[Bridge]
[Strophe 3]
Sobre mi almohada impregnado
se quedó tu perfume
Con una esencia que roba mis sueños
Hasta en la noche más dulce
Me da pavor despertarme
a solas cada mañana
Y confirmar que si estuve de nuevo a tu lado fue en cuentos de hadas
[Prechorus 2]
Ay ay ay ay
Como me duele
Que te hayas ido
Ay ay ay ay
[Chorus]
Pero jamás olvidaré
Que fuiste lo único que ame
Que cada noche te acusaba con la luna
Y yo te culpo porque soy
un hombre débil sin control
Cuando combino rumba y tu cintura
Y te repito, como tu ninguna
ninguna
[Outro]
Ay ay ay ay
Ay ay ay ay
Ay ay ay ay
ninguna
Ay ay ay ay
Ay ay ay ay
Ay ay ay ay
ninguna
Ay ay ay ay
Ay ay ay ay
Ay ay ay ay ninguna
Ay ay ay ay
Ay ay ay ay
Ay ay ay ay ninguna

Video de Ninguna
[]




[Ninguna chords][Ninguna cifra]
© LaCuerda.net · aviso legal · privacidad · es · en · pt · contacto