Acordes de Guitarra » R »Rolando Garcia » Toneladas de alabanzas (Tab)

Toneladas de alabanzas
Rolando Garcia

Letras, Acordes y Tabs para Guitarra, Bajo y Ukulele

  • Am   F             C            G           Am
    Amanecer con la textura suave y fresca de tu voz
             F            G              C
    y en tus Ojos ver que no se apage el Sol
               F                           C
    cuando los campos mueven sus hojas por Ti
                    Dm
    Yo te Quiero Adorar
                    G
    Yo te quiero Servir
    
    
    
    
                        C
    // Y Quiesiera confesarte que tengo
                    Dm
    Toneladas de Alabanza que darte
                     G
    Adorarte por los siglos Eternos
    
  • e-------------------------
    b-1-3-/5------------------
    G--------5/7-4/5-2/4-2-0--
    D-------------------------
    A-------------------------
    E-------------------------
    
    e-------------------------
    b-------------------------
    G-----------4---4-5/7-----
    D-4-5-7-5-7---7-----------
    A-------------------------
    E-------------------------
    
    e-------------------------
    b-------------------------
    G-4/5/4-------------------
    D-------7-5-4-5-4-5-4-----
    A-------------------------
    E-------------------------
    
  • Intro de Guitarra
    
    E -1--3--3/5---3h5p3--1h3p1------------------------0---0-3-
    B ---------------------------3h5--3p1---0-1-3-1-3----1-----
    G ---------------------------------------------------------
    D ---------------------------------------------------------
    A ---------------------------------------------------------
    E ---------------------------------------------------------
    
    E --1p0----------------------------------------------------
    B -------3-1-0---1-0-1-0h1p0------------------------------
    G ---------------------------------------------------------
    D ---------------------------------------------------------
    A ---------------------------------------------------------
    E ---------------------------------------------------------
    
    3h5p3: Tocas el 3 e inmediatamente le haces hammer al 5 y
           regresas haciendo pull-off al 3
    
    Muchas bendiciones a todos!
    
    -Nando-
  • +
    ¡Colabora con nosotros!
    Envíanos tu versión de esta canción

Letra de Toneladas de alabanzas
Amanecer con la textura suave y fresca de tu voz
y en tus Ojos ver que no se apage el Sol
cuando los campos mueven sus hojas por Ti
Yo te Quiero Adorar
Yo te quiero Servir
// Y Quiesiera confesarte que tengo
Toneladas de Alabanza que darte
Adorarte por los siglos Eternos
Porque Tu Fuistes a la Cruz a Salvarme
Mi Cantar Sera el cantar de las aves
voy harte una cancion cada dia
y mi alma para ti ya lo sabes
para ti mis versos y melodias //
Ahora yo
vivo contento pues tu Paz, cambio mi Ser
y la Tristeza vuela en alas del ayer
mi Corazon esta completo porque en Ti
ahora puedo cantar
ahora puedo reir
Dios los bendiga a todos. Saludos desde Mexico
mi nombre es Juan Carlos karloz007@hotmail.com
quiero que esta alabanza sea de bendicion como lo es para mi.
Animo mis guerreros musico animo que el Fuego de Dios nunca se apage
hay luchas, pruebas pero somos malos perdedores ok
Animpuede agregarme a su msn

Video de Toneladas de alabanzas
[]




[Toneladas de alabanzas chords][Toneladas de alabanzas cifra]
© LaCuerda.net · aviso legal · privacidad · es · en · pt · contacto