Acordes de Guitarra » R »La Roca » Cristo rompió mis cadenas (Tab)

Cristo rompió mis cadenas
La Roca

Letras, Acordes y Tabs para Guitarra, Bajo y Ukulele

  • //Am  F  G//
    C
      Ya no quiero seguir a todos los demás
           G 
    que caminan velozmente sin saber donde van
           F                 G             
    estoy harto de ser títere y no pensar.
    
    
    C
      Estoy harto de esa música que me hace pensar
                G                                 
    que soy un vago sin valor y sin autoridad
       F                     G                      C
    y no me queda otra que revelarme a la autoridad.
    
    
              F
    Quiero decirte que no quiero
           G  
    
  • KE ONDA MIS AMIGOS ESPERO QUE LES SEA DE BENDICION TODO LO QUE HAGO
    BUENO AHORA LES VOY A MANDAR UNOS TABS. HAY MAS O MENOSDE ESTA ROLA
    TAN PRENDIDA QUE EN LO PERSONAL A MI ME ENCANTA.
    
    EMPIEZA ASI....
    
    EMPIZA CON TECLADOS DESPUES DE LOS RUIDOS
    LOS ACORDES SON  Am  F   G  SON LOS MISMOS QUE VAN EN
    ESTE REQUINTO
    
    E-3-------------3-------------------------3-----------3---------------3-
    B---5-3-----3-5---5-3---3-5-5-3-3-----------5-3---3-5---5-3---3-5-5-3--------
    G--------5------------5------------2-4-5--------5-----------5--
    D------------------------------------------------------
    A-------------------------------------------------------
    E------------------------------------------------------
     SIGUE
    ESTE MISMO REQUINTO JUNTO CON ESTE OTRO
    
    E-------------------------------------------------------
    B-5-8-5-3-1---1-1-5-3-1-----------------------------------------------
    G-----------2----------------------------------------------
    D-------------------------------------------
  • +
    ¡Colabora con nosotros!
    Envíanos tu versión de esta canción

Letra de Cristo rompió mis cadenas
Ya no quiero seguir a todos los demás
que caminan velozmente sin saber donde van
estoy harto de ser títere y no pensar.
Estoy harto de esa música que me hace pensar
que soy un vago sin valor y sin autoridad
y no me queda otra que revelarme a la autoridad.
Quiero decirte que no quiero
verte más involucrado
en las cosas que no traen bien,
quiero decirte que soy libre y no un esclavo...
Porque Cristo rompió mis cadenas
Me dio nueva vida,
Cristo murió en una cruz
Para darme salvación.
(Misma secuencia)
Esos que te aconsejan sexo, drogas y rock
no les importa si te mueres de una intoxicación
si el sida te destruye ninguno de ellos se entero.
Es por eso que yo no me avergüenzo de Jesús,
el si nos demostró su amor al morir en la cruz
no me importa si me dicen loco o fanático.
Quiero decirte que si quieres
verte hoy involucrado
en las cosas que hace Dios
quiero decirte serás libre y no un esclavo.
//Cristo rompió mis cadenas..........//

Video de Cristo rompió mis cadenas
[]




[Cristo rompió mis cadenas chords][Cristo rompió mis cadenas cifra]
© LaCuerda.net · aviso legal · privacidad · es · en · pt · contacto