Acordes de Guitarra » R »Roberto Roena » Mi Desengaño (Tab)

Mi Desengaño
Roberto Roena

Letras, Acordes y Tabs para Guitarra, Bajo y Ukulele

  • e-------------------   -------------------------------
    B-------4------4----   ---6----4----------3-----------
    G-------3---3--3----   ---5----4----------3-----------
    D--3----5---5-------   ---6----3----------1-----------
    A-------3-----------   ---5---------------3-----------
    E-------------------   --------3----------------------
    
    
    
    Intro trompetas
    
    Cm, G7, Cm     G7, Fm,   Cm, G7, Fm, G7  e --------------
                                             B --------------
                                             G --0-----------
                                             D -----3--1--0--
                                             A --------------
                                             E --------------
    
    
    Cm7        G7     Cm7              G7     Fm7
    
  • e----------------|----------------|
    A----------------|----------------|
    D-----8-------8--|7---------------|
    G----10----10----|8-----8----5----|
    B-10-------------|----------------|
    E---------------------------------|
    
       Cm      Bb      Gm
    Sentemonos a pensar
       Cm      Bb      Fm
    La vida ha de continuar
             Gm             Cm
    Tejiendo amor donde no hay
           Bb               Gm
    Y finjiendo una sinceridad
    
        Cm       Bb       Gm
    Es cierto se debe admitir
        Cm       Bb         Fm
    El mundo esta lleno de maldad
    
  • +
    ¡Colabora con nosotros!
    Envíanos tu versión de esta canción

Letra de Mi Desengaño
Sentemonos a pensar
La vida ha de continuar
Tejiendo amor donde no hay
Y finjiendo una sinceridad
Es cierto se debe admitir
El mundo esta lleno de maldad
Pero al estudiar la situacion
Entraremos en razon
Y ya veras
Cuando descanse te hablare
De un algo extraño
Y vida mia te dire
Mi desengaño
El coro continua igual

Video de Mi Desengaño
[]




[Mi Desengaño chords][Mi Desengaño cifra]
© LaCuerda.net · aviso legal · privacidad · es · en · pt · contacto