Acordes de Guitarra » R »Roberto Orellana » Esta casa te espera (Tab)

Esta casa te espera
Roberto Orellana

Letras, Acordes y Tabs para Guitarra, Bajo y Ukulele

  •    Bbsus2         Bbsus4         Bbsus2         Bbsus4
    1|-------------------------------------1-----------------------
    2|-------1--------------4-----------------------------4--------
    3|-----3---3---3------3---3---3------3---3---3------3---3---3--
    4|---3-------3------3-------3------3-------3------3-------3----
    5|-1-----------------------------1-----------------------------
    6|----------------1-----------------------------1--------------
    
       Bbsus2         Bbsus4         Bbsus2
    1|-------------------------------------1-----------
    2|-------1--------------4-----------------------1--
    3|-----3---3---3------3---3---3------3---3---3--3--
    4|---3-------3------3-------3------3-------3----3--
    5|-1-----------------------------1--------------1--
    6|----------------1--------------------------------
    
    
    Verso:
    
       Bbsus2         Bbsus4         Bbsus2         Bbsus4
    
  • +
    ¬°Colabora con nosotros!
    Envíanos tu versión de esta canción

Letra de Esta casa te espera
Verso:
Tablatura (guitarra 2) -] Capo 3er traste
Verso:
Has de nuestros corazones Tu Altar
De nuestras vidas Tu Casa, Tu Habitación
Una pasión hoy nos une
Deseamos Tu Espíritu... [x2]
Este Pueblo Te Adora
Esta Casa Te Espera
Estamos Sedientos
De Un Avivamiento
En Este Lugar
Este Pueblo Te Adora
Esta Casa Te Espera
Tu Gloria Descienda
Tu Fuego Se Encienda
En Este Lugar...
VERSO:
Has de nuestros corazones Tu Altar
De nuestras vidas Tu Casa, Tu Habitación
Una pasión hoy nos une
Deseamos Tu Espíritu... [x2]
Este Pueblo Te Adora
Esta Casa Te Espera
Estamos Sedientos
De Un Avivamiento
En Este Lugar
Este Pueblo Te Adora
Esta Casa Te Espera
Tu Gloria Descienda
Tu Fuego Se Encienda
En Este Lugar... [x2]
(sube de tono)
Este Pueblo Te Adora
Esta Casa Te Espera
Estamos Sedientos
De Un Avivamiento
En Este Lugar...
Este Pueblo Te Adora
Esta Casa Te Espera
Tu Gloria Descienda
Tu Fuego Se Encienda
En Este Lugar...
En Este Lugar...
En Este Lugar...
En Este Lugar...
Para cualquiera de las 2 guitarras que elijan, también deben seguir
con la recomendación de poner el capo en el traste correspondiente
para que las figuras que est√°n puestas en la tablatura sean m√°s
sencillas de ejecutar.
Bendiciones!!




[Esta casa te espera chords][Esta casa te espera cifra]
© LaCuerda.net · aviso legal · privacidad · es · en · pt · contacto