Acordes de Guitarra » R »Roberto Orellana » Escondeme (Tab)

Escondeme
Roberto Orellana

Letras, Acordes y Tabs para Guitarra, Bajo y Ukulele

  • G                D                C
    PORQUE DE TAL MANERA AMASTE AL MUNDO
     G               D                 C                                   
    QUE ENVIASTE A TU HIJO CON AMOR PROFUNDO
     Am              Em               D                                         
    DONDE ESTARIA HOY SI NO FUERA POR TI
     Am              Em                D                                      
    EN UN LAGO PROFUNDO Y SIN PODER SALIR
    
    G          D               C                                                   
    SEGURO PERDIDO COMO BAGAVUNDO        
    G           D               C                                        
    MI ALMA OXIDADA CORAZON DESNUDO  
    Am             Em             D                                      
    PERO LLEGASTE TU JUSTO A TIEMPO 
    Am             Em                   D                                 
    CUANDO CAMINABA POR EL MISMO INFIERNO
                 
                   -CORO-
    
    
  • ay les va el requinto de esta cancion por cierto es la k mas
    me gusta
    
    E-8-10-10/12-10-----------------------------------------------
    B----------------7-8--8-10-10/12-12-10-10/8-------------------
    G--------------------------------------------7h9-7--9-11-12-7-
    D-------------------------------------------------------------
    A-------------------------------------------------------------
    E-------------------------------------------------------------
    
    E---------------------------------10-------------------------
    B---------------------------8-10------------------------------
    G----12-12/11--11-11-11---------------------------------------
    D-------------------------------------------------------------
    A-------------------------------------------------------------
    E------------12-------------8---------------------------------
    
    
    esa es mi forma de interpretar espero  les guste
     un saludo para mi hermano alexis
    
    les debo un requinto de en medio y el solo
    pero luego se los pongo
    
    es k ahoy no tengo 
  •   G        D       Em          Bm            C       Am
    E-7-10-10/12-10-----------------------------------------------
    B----------------7-8--8-10-10/12-12-10-8---------7h8----------
    G----------------------------------------7-7/9-9-----7--------
    D-------------------------------------------------------------
    A-------------------------------------------------------------
    E-------------------------------------------------------------
    
            D      C  D     G
    E----------------------10-------------------------------------
    B--7h8-8-7-7-5/7/8--10----------------------------------------
    G-9-----------------------------------------------------------
    D-------------------------------------------------------------
    A-------------------------------------------------------------
    E-------------------------------------------------------------
    
    
    Preludio musical
    (1:44)
    
    
  • +
    ¡Colabora con nosotros!
    Envíanos tu versión de esta canción

Letra de Escondeme
PORQUE DE TAL MANERA AMASTE AL MUNDO
QUE ENVIASTE A TU HIJO CON AMOR PROFUNDO
DONDE ESTARIA HOY SI NO FUERA POR TI
EN UN LAGO PROFUNDO Y SIN PODER SALIR
SEGURO PERDIDO COMO BAGAVUNDO
MI ALMA OXIDADA CORAZON DESNUDO
PERO LLEGASTE TU JUSTO A TIEMPO
CUANDO CAMINABA POR EL MISMO INFIERNO

POR ESO YO NO PUEDO VIVIR SIN TI /NO,NO,NO,NO,NO/
POR ESO YO NO PUEDO VIVIR SIN TI /NO,NO,NO,NO,NO/
POR ESO YO OH OH NO PUEDO VIVIR SIN TI,SEÑOR
ESCONDEME EN EL HUECO DE TU CORAZOM
ESTA ES MI VERCION ESPERO QUE LES SEA DE BENDICION
SI HAY ALGUN ERROR,!NO DUDES¡
ENVIAME UN IMAIL




[Escondeme chords][Escondeme cifra]
© LaCuerda.net · aviso legal · privacidad · es · en · pt · contacto