Acordes de Guitarra » R »Ricos y Mocosos » No me importa nada (Tab)

No me importa nada
Ricos y Mocosos

Letras, Acordes y Tabs para Guitarra, Bajo y Ukulele

  • e -----8---10--8--10-12---13-12---10-8-----8-10---8-8--
    B --8------------------------------------8-------------
    G -----------------------------------------------------
    D -----------------------------------------------------
    A -----------------------------------------------------
    E -----------------------------------------------------
    
    
    (Otra forma de la misma introducción)
    
    e -----------------0---1-0----------------------
    B -----1---3--1--3-----------3-1-----1-3---1-1--
    G --0------------------------------0------------
    D ----------------------------------------------
    A ----------------------------------------------
    E ----------------------------------------------
    
    
    F                Am              F
      No me importa nada, nada nada
    
  • Notas:             MI  LA  RE SOL  SI MI
    
    Do7/9              x    3   2   0   1  3
    Fa7/9              1    3   1   2   1  3
    SOLM                       3    2   0   0   3  3
    D/F                2   0   0    2   3  0
    
    Do7/9 Fa7/9 SOLM
    
    DO7/9                         FA7/9        SOL        DO7/9
    No me importa nada, nada, nada,     cuando    estoy con vos
    DO7/9                         FA7/9        SOL        DO7/9
    no me falta nada, nada, nadaaa,     si tengo    tu amor
    FA7/9    SOL       DO7/9   FA7/9    SOL         DO7/9
    cuando pierda la esperanza, y no puedo ver el sol
    FA7/9    SOL       DO7/9  D/F                SOL 
    cuando reina la nostalgia,   dentro de mi corazon
    FA7/9    SOL       DO7/9   FA7/9    SOL         DO7/9
    cuando no pasan las horas, cuando tengo mal humor
    FA7/9    SOL       DO7/9   D/F                  SOL 
    
  • +
    ¡Colabora con nosotros!
    Envíanos tu versión de esta canción

Letra de No me importa nada
(Otra forma de la misma introducción)
No me importa nada, nada nada
cuando estoy con vos
No me falta nada, nada nada
si tengo tu amor
Cuando pierdo la esperanza
y no puedo ver el sol
cuando reina la nostalgia
dentro de mi corazón
Cuando no pasan las horas
cuando tengo mal humor
si me pierdo en el camino
Repite (I)
Si doy vueltas en la cama
junto con mi soledad
yo me voy con mi guitarra
a cantar por la ciudad
Repite (I)
Son las seis y subo a un taxi
sin saber a donde ir
voy dejando atrás en cada esquina
los fantasmas que hubo en mi
Estoy sentada en el cordón de la vereda
no me canso de esperar
con los ojos fijos en tu puerta
Repite (I)

Video de No me importa nada
[]




[No me importa nada chords][No me importa nada cifra]
© LaCuerda.net · aviso legal · privacidad · es · en · pt · contacto