Acordes de Guitarra » R »Ricky Espinosa » Albertito (Tab)

Albertito
Ricky Espinosa

Letras, Acordes y Tabs para Guitarra, Bajo y Ukulele

  • e|-------------------------------|
    B|-------------------------------|
    G|-------------------------------| (x2)
    D|-------1-----------------------|
    A|--2--2---2--2-1------1-2--2-2--|
    E|----------------2--2-----------|
    
    
    e|----------------------------------------|
    B|----------------------------------------|
    G|----------------------------------------| (x2)
    D|--2--2-2-1------------------------------|
    A|-----------4-2--2-2-1------------1-2-2--|
    E|----------------------4-2--2-2-4--------|
    
    
    INTRO x2
    
    B                          F#              B
    esta es la historia de un muchacho muy correcto
    
  • +
    ¡Colabora con nosotros!
    Envíanos tu versión de esta canción

Letra de Albertito
esta es la historia de un muchacho muy correcto
esto era pasado de mi ex amigo Alberto
pasabamos todo el dia jugando al chorro y la policia
siempre fue muy raro, siempre hacia de policia
tenia veinte años y sus padres les decia
es una carrera con futuro nene fijate como anda el mundo
un dia desaparecio y a Albertito no lo vi mas
segun me dijo el viejo se fue al liceo militar
y se marcho, se marcho, se marcho, se marcho,y no lo vimos mas
en la calle un dia a Albertito lo encontre
pregunte que hiciste y el me dijo: deja de joder
tiene el pelo bien cortado, recien se habia afeitado
y mas abajo le brillaba su lindo calzado
Albertito se nos hizo militar
de nosotros nadie lo volvio a saludar
Albertito ya es teniente general
Albertito si es por mi te podes matar
Albertito si es por mi te podes matar




[Albertito chords][Albertito cifra]
© LaCuerda.net · aviso legal · privacidad · es · en · pt · contacto
DINAMICO